Guitaretab - guitar tabs
Song name
# A B C D E F G H I J K L M N O P Q R S T U V W X Y Z

Misc Unsigned Bands - Two Silver Bullets Shy - Wools tab

Band: Two Silver Bulletts Shy
Song: Wools Solo


Info:
	Hey, I'm Colton W. guitarist of Two Silver Bullets Shy.
My band is brand new still trying to get every body to form the band. But I went ahead 
wrote a solo.

P.S. If you see this tab don't dis me because you think you can play
better than me, or you think this tab is stupid!


The tuning is drop D

Key:
^ = bend
~ = vibrato
< = slow release
* = pinch harmonic
// = cut off sound five times
P = pulloff
Tr = tremelo pick

           ^//
E---------------3P2P0-----------------------------|
B--------------------3P2P0------------------------|
G----------2--------------0-2~0-------------------|
D-22--22-----------------------2~--22--22---------|
A-22--22---------------------------22--22---------|
D-22--22---------------------------22--22---------|
[ Tab from: http://www.guitaretab.com/m/misc-unsigned-bands/105097.html ]
   ^~                            ^ hold 18 <
E-----12----12------------------18-18-18-18-17-----|
B-15------12---------------------------------------|
G-------14----14~12--------------------------------|
D------------------14~--22--22---------------------|
A-----------------------22--22---------------------|
D-----------------------22--22---------------------|

                             Tremelo      to
E-15-12--12-----------------------------------------|
B---------------------------------------------------|
G------14--14-12------------------------12-14-12-14-|
D---------------14~--22--22--12-14-12-14------------|
A--------------------22--22-------------------------|
D--------------------22--22-------------------------|

  here   "14^~"                            ^    ^
E---------------------------------------12---12------|
B-12-15--12--14~------------------------12---12------|
G--------14-----------------------12-14---14---14----|
D-----------------22--22-----12-14-------------------|
A-----------------22--22--14~------------------------|
D-----------------22--22-----------------------------|

    ^     ^          *
E-12---12------------------------------------------|
B-12---12------------------------------------------|
G---14---14-14-12----------------------------------|
D----------------14~-2~--22--22--------------------|
A------------------------22--22--------------------|
D------------------------22--22--------------------|
Related for Two Silver Bullets Shy - Wools tab
Advertisement will be closed in 10 seconds