Song name
# A B C D E F G H I J K L M N O P Q R S T U V W X Y Z

Misc Unsigned Bands - Vuke Liser - Dead Ferret tab

-------------------------------------------------------------------------------
			     Vuke Liser - Dead Ferret
-------------------------------------------------------------------------------
Tabbed by:Viss dog
Email:go away

Tuning:EADGBE
Riff 1
How are ya
e|---------------------------------------------------------------------------|
B|---------------------------------------------------------------------------|
G|---------------------------------------------------------------------------|
D|-2-2---------------0-2^2^-0h2p0--0h2p0-------------------------------2^2^--|
A|-2-2-------0h2p0h2--------------2------0h2p0-2^2^---------0h2p0-2p0h2------|
E|-0-0---0h3-----------------------------------------0h3-0h3-----------------|

e|---------------------------------------------------------------------------|
B|---------------------------------------------------------------------------|
G|---------------------------------------------------------------------------|
D|-0h2p0--0h2p0-----------2--------------------------------------------------|
A|--------------0h2p0-----2--------------------------------------------------|
E|--------------------0h3-0--------------------------------------------------|
Riff 2
e|---------------------------------------------------------------------------|
B|---------------------------------------------------------------------------|
G|---------------------------------------------------------------------------|
D|-0h2p0--0h2p0-----------2--------------------------------------------------|
A|--------------0h2p0-----2--------------------------------------------------|
E|--------------------0h3-0--------------------------------------------------|
Riff 3 is just some power chords, first time play the chords twice and after that do the 
but with some serious palm muting in between chords. Dont palm mute the A or low E. All 
play 4 times den back to Riff 1 and 2
e|-----------------------------------------------------------------------------|
B|-----------------------------------------------------------------------------|
G|-9-9------5-5-----7-7-----2-------9-9------5-5---7-7----9--------------------|
D|-9-9------5-5-----7-7-----2--2----9-9------5-5---7-7----9--------------------|
A|-7-7------3-3-----5-5-----0--2----7-7------3-3---5-5----7--------------------|
E|-0-0-------------------------0----0-0-------------------0--------------------|
Sorry fellas, i havent had time to tab the extreme petatonic solo on spoons but ill get 
to youse later with dat

| /  slide up
| \  slide down
| h  hammer-on
| p  pull-off
| ~  vibrato
| +  harmonic
| x  Mute note
===============================================================================
Tap to rate this tab
 
# A B C D E F G H I J K L M N O P Q R S T U V W X Y Z