Song name
# A B C D E F G H I J K L M N O P Q R S T U V W X Y Z

Misc Unsigned Bands - Panic Button - Crisis tab

e|-------------------------------------------------------|
b|-------------------------------------------------------|
g|-------------------------------------------------------| x4
d|-------------------------------------------------------|
a|------------10-x2-12-x2--------------------------------|
E|-10-x2-13-x2-------------------------------------------|



e|-------------------------------------------------------|
b|-------------------------------------------------------|
g|-------------------------------------------------------| x4
d|-------------------------------------------------------|
a|-13-x2-10-x2-------------------------------------------|
E|-------------13-x2-11-x2-------------------------------|

Tap to rate this tab
# A B C D E F G H I J K L M N O P Q R S T U V W X Y Z