Song name
# A B C D E F G H I J K L M N O P Q R S T U V W X Y Z

Misc Unsigned Bands - The Summers Fire - Makeshift Wings tab

This is my band and this is my song that i wrote. I hope you like it.


-----------------------------------------------------------------------------
			  Makeshift Wings - The Summer's Fire
-----------------------------------------------------------------------------
Tabbed by:death by jolt
Email:

Tuning:Standard

INTRO/CHORUS

e|--------------|
B|--------------|
G|--------------|
D|--------------|     X3
A|------9h10--7-|
E|--7-0------8--|

e|------------------   e---------------------|
B|------------------   B---------------------|
G|------------------   G---------------------|
D|----------7-------   D---------------------| X3
A|------9h10-10-9---   A---------9h10---7----|
E|--7-0-------------   E-----7-0------8------|


e|---------------------------------------------------------------------------|
B|---------------------------------------------------------------------------|
G|---------------------------------------------------------------------------|
D|-----------7---------------------------------------------------------------|
A|------9h10---10-9---7-5-7-5-3-5-7-0----------------------------------------|
E|--7-0-------------8--------------------------------------------------------|


VERSE I

e|------------------------   e-----------------------------------------------|
B|------------------------   B-----------------------------------------------|
G|------------------------   G-----------------------------------------------|
D|-------------5-7--------   D----------------5-7----------------------------|
A|-----7h9-5-3-----5-3----   A--------7h9-5-3-----5-3-5-7-5-3-5-7-0----------|
E|-5-0--------------------   E----5-0----------------------------------------|


VERSE II

e|------------------------------------------------------------------|
B|------------------------------------------------------------------|
G|------------------------------------------------------------------|
D|--2-4------------------------------2-4----------------------------| X2
A|------3-5------------------------------3-5------------------------|
E|----------2-3-3-3-3-3-3-3-3-3-3------------3-2-2-2-2-2-2-2-2-2-2--|

The last time you play this slide 0/
                                  0/
                                  2/

SOLO


This is my band and this is my song that i wrote. I hope you like it.

e|---------------------------------------------3---3---3-5-5---5-------------|
B|------------------7h8/10-10/12-12\7-7/3--3-5---5---5-------3---3-5-3/8-----|
G|-11-12-9----9-7-9----------------------------------------------------------|
D|---------11----------------------------------------------------------------|
A|---------------------------------------------------------------------------|
E|---------------------------------------------------------------------------|

e|--------------------------------------------------------------------7-5-0--|
B|-8p7-7/10-10/12-12-12h13p12-12-12/10-10/15-15/5-5-7-5---5-7-5-3-5-7--------|
G|------------------------------------------------------7--------------------|
D|---------------------------------------------------------------------------|
A|---------------------------------------------------------------------------|
E|---------------------------------------------------------------------------|

e|--7/15--------|
B|--------------|
G|--------------|
D|--------------|
A|--------------|
E|--------------|


INTRO
CHORUS x2
VERSEI x3
VERSEII
CHORUS x2
VERSEI x3
VERSEII
VERSEI x3
SOLO
CHORUSx4
Tap to rate this tab
 
# A B C D E F G H I J K L M N O P Q R S T U V W X Y Z