Song name
# A B C D E F G H I J K L M N O P Q R S T U V W X Y Z

Misc Unsigned Bands - Slow Motion Sickness - Your Darkest Secrets tab

-------------------------------------------------------------------------------
Darkest Hidden Secrets - SMS
-------------------------------------------------------------------------------
Tabbed by: Pure Swami
Email: swensmullet@yahoo.com

Tuning: Drop D

This is the basic overview of the song. I am one of the guitarists in SMS and
this is how i play it.... this may be hard to understand without the song and without 
rythem. If you want the song, they are soon to be up on Itunes and or you can listen to it 
the web at www.myspace.com/smsowns  thanks,

e|------------------------------------------------------------------------------|
B|------------------------------------------------------------------------------|
G|------------------------------------------------------------------------------|
D|-----7-----7----7-------8-----8---8-----5-----5------5---5-------8----7----5--|
A|------------------------------------------------------------------------------|
D|-5-5---5-5----5-----5-5---5-5---5---5-5---5-5----5-5---5----5-5----5----5-----|

e|------------------------------------------------------------------------------|
B|------------------------------------------------------------------------------|
G|------------------------------------------------------------------------------|
D|------3-----3----3------5-----5----5------3-----3----x---1-1-1-1-3-3-3-3------|
A|-----------------------------------------------------x---1-1-1-1-3-3-3-3------|
D|--1-1---1-1---1-----1-1---1-1---1-----1-1---1-1---1--x---1-1-1-1-3-3-3-3------|

e|----------------------------------------------------------------------|
B|----------------------------------------------------------------------|
G|----------------------------------------------------------------------|
D|-----7-----7----7-------8-----8---8-----5-----5---5------8----7----8--|
A|----------------------------------------------------------------------|
D|-5-5---5-5----5-----5-5---5-5---5---5-5---5-5---5----5-5----5----5----|

e|-------------------------------------------------------------|
B|-------------------------------------------------------------|
G|-------------------------------------------------------------|
D|------3-----3----3------5-----5---5-------3------3----3---1--|
A|----------------------------------------------------------1--|
D|--1-1---1-1---1-----1-1---1-1---1-----1-1---1-1----1------1--|

e|-----------------------------------------------------------------------------|
B|-----------------------------------------------------------------------------|
G|-----------------------------------------------------------------------------|
D|--3/5-5-5-5-5-5-5\3 3/5-5-5-5-5-5-5-7-7-8-8-7--------------------------------|
A|--3/5-5-5-5-5-5-5\3 3/5-5-5-5-5-5-5-7-7-8-8-7--------------------------------|
D|--3/5-5-5-5-5-5-5\3-3/5-5-5-5-5-5-5-7-7-8-8-7--------------------------------|

e|------------------------------------------------------------------|
B|------------------------------------------------------------------|
G|------------------------------------------------------------------|
D|------------------------------------------------------------------|
A|-11111---11111---11111---11111---11111---11111---1-1-1-1-3-3-3-3--|
D|-11111---11111---11111---11111---11111---11111---1-1-1-1-3-3-3-3--|

e|-----------------------------------------------------------------------------|
B|-----------------------------------------------------------------------------|
G|-----------------------------------------------------------------------------|
D|--3/5-5-5-5-5-5-5\3 3/5-5-5-5-5-5-5-7-7-8-8-7--------------------------------|
A|--3/5-5-5-5-5-5-5\3 3/5-5-5-5-5-5-5-7-7-8-8-7--------------------------------|
D|--3/5-5-5-5-5-5-5\3-3/5-5-5-5-5-5-5-7-7-8-8-7--------------------------------|

e|------------------------------------------------------------------|
B|------------------------------------------------------------------|
G|------------------------------------------------------------------|
D|------------------------------------------------------------------|
A|-11111---11111---11111---11111---11111---11111---1-1-1-1-3-3-3-3--|
D|-11111---11111---11111---11111---11111---11111---1-1-1-1-3-3-3-3--|

e|----------------------------------------------------------------------|
B|----------------------------------------------------------------------|
G|----------------------------------------------------------------------|
D|-5-5-5---8-8-8---3-3-3---10-10-10-8-8-8-7-7----5-5-5---8-8-8---3-3-3--|
A|-5-5-5---8-8-8---3-3-3---10-10-10-8-8-8-7-7----5-5-5---8-8-8---3-3-3--|
D|-5-5-5---8-8-8---3-3-3---10-10-10-8-8-8-7-7----5-5-5---8-8-8---3-3-3--|

e|-------------------------------------------------------------------|
B|-------------------------------------------------------------------|
G|-------------------------------------------------------------------|
D|-10-10-10-8-8-8-7-7----5-5-5---8-8-8---3-3-3---10-10-10-9-9-9-7-7--|
A|-10-10-10-8-8-8-7-7----5-5-5---8-8-8---3-3-3---10-10-10-9-9-9-7-7--|
D|-10-10-10-8-8-8-7-7----5-5-5---8-8-8---3-3-3---10-10-10-9-9-9-7-7--|

e|----------------------------------------------------------------------------|
B|----------------------------------------------------------------------------|
G|----------------------------------------------------------------------------|
D|-5-5-5---8-8-8---3-3-3----10-10-10-9-9-9-7-7--------------------------------|
A|-5-5-5---8-8-8---3-3-3----10-10-10-9-9-9-7-7--------------------------------|
D|-5-5-5---8-8-8---3-3-3----10-10-10-9-9-9-7-7--------------------------------|

e|-----------------------------------------------------------------------------|
B|-----------------------------------------------------------------------------|
G|-----------------------------------------------------------------------------|
D|--3/5-5-5-5-5-5-5\3 3/5-5-5-5-5-5-5-7-7-8-8-7--------------------------------|
A|--3/5-5-5-5-5-5-5\3 3/5-5-5-5-5-5-5-7-7-8-8-7--------------------------------|
D|--3/5-5-5-5-5-5-5\3-3/5-5-5-5-5-5-5-7-7-8-8-7--------------------------------|

e|------------------------------------------------------------------|
B|------------------------------------------------------------------|
G|------------------------------------------------------------------|
D|------------------------------------------------------------------|
A|-11111---11111---11111---11111---11111---11111---1-1-1-1-3-3-3-3--|
D|-11111---11111---11111---11111---11111---11111---1-1-1-1-3-3-3-3--|

e|-----------------------------------------------------------------------------|
B|-----------------------------------------------------------------------------|
G|-----------------------------------------------------------------------------|
D|--3/5-5-5-5-5-5-5\3 3/5-5-5-5-5-5-5-7-7-8-8-7--------------------------------|
A|--3/5-5-5-5-5-5-5\3 3/5-5-5-5-5-5-5-7-7-8-8-7--------------------------------|
D|--3/5-5-5-5-5-5-5\3-3/5-5-5-5-5-5-5-7-7-8-8-7--------------------------------|

e|------------------------------------------------------------------|
B|------------------------------------------------------------------|
G|------------------------------------------------------------------|
D|------------------------------------------------------------------|
A|-11111---11111---11111---11111---11111---11111---1-1-1-1-3-3-3-3--|
D|-11111---11111---11111---11111---11111---11111---1-1-1-1-3-3-3-3--|

e|----------------------------------------------------------------------|
B|----------------------------------------------------------------------|
G|----------------------------------------------------------------------|
D|-5-5-5---8-8-8---3-3-3---10-10-10-8-8-8-7-7----5-5-5---8-8-8---3-3-3--|
A|-5-5-5---8-8-8---3-3-3---10-10-10-8-8-8-7-7----5-5-5---8-8-8---3-3-3--|
D|-5-5-5---8-8-8---3-3-3---10-10-10-8-8-8-7-7----5-5-5---8-8-8---3-3-3--|

e|-------------------------------------------------------------------|
B|-------------------------------------------------------------------|
G|-------------------------------------------------------------------|
D|-10-10-10-8-8-8-7-7----5-5-5---8-8-8---3-3-3---10-10-10-9-9-9-7-7--|
A|-10-10-10-8-8-8-7-7----5-5-5---8-8-8---3-3-3---10-10-10-9-9-9-7-7--|
D|-10-10-10-8-8-8-7-7----5-5-5---8-8-8---3-3-3---10-10-10-9-9-9-7-7--|

e|----------------------------------------------------------------------------|
B|----------------------------------------------------------------------------|
G|----------------------------------------------------------------------------|
D|-5-5-5---8-8-8---3-3-3----10-10-10-9-9-9-7-7----5---------------------------|
A|-5-5-5---8-8-8---3-3-3----10-10-10-9-9-9-7-7----5---------------------------|
D|-5-5-5---8-8-8---3-3-3----10-10-10-9-9-9-7-7----5---------------------------|


e|------------------------------------------------------------------------------|
B|------------------------------------------------------------------------------|
G|------------9-9--------------9-9-----------------9-9-------------7-7----------|
D|-------7-7------7-7------7-7-----7-7-------7-7------7-7------7-7-----7-5------|
A|--5-5----------------5-5--------------9-9----------------9-9------------------|
D|------------------------------------------------------------------------------|

e|-------------------------------------------------------------------------------|
B|-------------------------------------------------------------------------------|
G|------------9-9--------------9-9-----------------9-9-------------7-7-----------|
D|-------7-7------7-7------7-7-----7-7-------7-7------7-7------7-7-----7-5-------|
A|--5-5----------------5-5--------------9-9----------------9-9-------------------|
D|-------------------------------------------------------------------------------|

e|---------------------------------------------------------------------------------------|
B|---------------------------------------------------------------------------------------|
G|---------------------------------------------------------------------------------------|
D|---------------------------------------------------------------------------------------|
A|-0-0-0-0---0----0-0-------------4-4-4-4----4-----4------7----7----7-7-7----------------|
D|-0-0-0-0---0----0-0-------------4-4-4-4----4-----4------7----7----7-7-7----------------|

e|---------------------------------------------------------------------------------------|
B|---------------------------------------------------------------------------------------|
G|---------------------------------------------------------------------------------------|
D|---------------------------------------------------------------------------------------|
A|-0-0-0-0---0----0-0-------------4-4-4-4----4-----4------7----7----7-7-7----------------|
D|-0-0-0-0---0----0-0-------------4-4-4-4----4-----4------7----7----7-7-7----------------|

e|---------------------------------------------------------------------------------------|
B|---------------------------------------------------------------------------------------|
G|---------------------------------------------------------------------------------------|
D|---------------------------------------------------------------------------------------|
A|-0-0-0-0---0----0-0-------------4-4-4-4----4-----4------7----7----7-7-7----------------|
D|-0-0-0-0---0----0-0-------------4-4-4-4----4-----4------7----7----7-7-7----------------|


e|---------------------------------------------------------------------------------------|
B|---------------------------------------------------------------------------------------|
G|---------------------------------------------------------------------------------------|
D|---------------------------------------------------------------------------------------|
A|-0-0-0-0---0----0-0-------------4-4-4-4----4-----4------7----7----7-7-7----------------|
D|-0-0-0-0---0----0-0-------------4-4-4-4----4-----4------7----7----7-7-7----------------|

e|---------------------------------------------------------------------------------------|
B|---------------------------------------------------------------------------------------|
G|---------------------------------------------------------------------------------------|
D|---------------------------------------------------------------------------------------|
A|-0-0-0-0-0-0-0-0-0-0-0-0-0-0-0-0-4-4-4-4-4-4-4-4-7-7-7-7-7-7-7-7-----------------------|
D|-0-0-0-0-0-0-0-0-0-0-0-0-0-0-0-0-4-4-4-4-4-4-4-4-7-7-7-7-7-7-7-7-----------------------|

e|--------------------------------------------------------------------|
B|--------------------------------------------------------------------|
G|--------------------------------------------------------------------|
D|--------------------------------------------------------------------|
A|-0-0-0-0-0-0-0-0-0-0-0-0-0-0-0-0-4-4-4-4-4-4-4-4-7-7-7-7-7-7-7-7----|
D|-0-0-0-0-0-0-0-0-0-0-0-0-0-0-0-0-4-4-4-4-4-4-4-4-7-7-7-7-7-7-7-7----|

e|--------------------------------------------------------------------|
B|--------------------------------------------------------------------|
G|--------------------------------------------------------------------|
D|--------------------------------------------------------------------|
A|-0-0-0-0-0-0-0-0-0-0-0-0-0-0-0-0-4-4-4-4-4-4-4-4-7-7-7-7-7-7-7-7----|
D|-0-0-0-0-0-0-0-0-0-0-0-0-0-0-0-0-4-4-4-4-4-4-4-4-7-7-7-7-7-7-7-7----|

e|--------------------------------------------------------------------|
B|--------------------------------------------------------------------|
G|--------------------------------------------------------------------|
D|--------------------------------------------------------------------|
A|-0-0-0-0-0-0-0-0-0-0-0-0-0-0-0-0-4-4-4-4-4-4-4-4-7-7-7-7-7-7-7-7----|
D|-0-0-0-0-0-0-0-0-0-0-0-0-0-0-0-0-4-4-4-4-4-4-4-4-7-7-7-7-7-7-7-7----|


e|--------------------------------------------------------------------|
B|--------------------------------------------------------------------|
G|--------------------------------------------------------------------|
D|--------------------------------------------------------------------|
A|-5-5-5-5-5-5-5-5-8-8-8-8-8-8-8-8-3-3-3-3-3-3-3-3-10-10-10-9-9-9-7-7-|
D|-5-5-5-5-5-5-5-5-8-8-8-8-8-8-8-8-3-3-3-3-3-3-3-3-10-10-10-9-9-9-7-7-|

e|--------------------------------------------------------------------|
B|--------------------------------------------------------------------|
G|--------------------------------------------------------------------|
D|--------------------------------------------------------------------|
A|-5-5-5-5-5-5-5-5-8-8-8-8-8-8-8-8-3-3-3-3-3-3-3-3-10-10-10-9-9-9-7-7-|
D|-5-5-5-5-5-5-5-5-8-8-8-8-8-8-8-8-3-3-3-3-3-3-3-3-10-10-10-9-9-9-7-7-|

e|----------------------------------------------------------------------------------|
B|----------------------------------------------------------------------------------|
G|----------------------------------------------------------------------------------|
D|-5-5-5---8-8-8---3-3-3---10-10-10-8-8-8-7-7----5-5-5---8-8-8---3-3-3--------------|
A|-5-5-5---8-8-8---3-3-3---10-10-10-8-8-8-7-7----5-5-5---8-8-8---3-3-3--------------|
D|-5-5-5---8-8-8---3-3-3---10-10-10-8-8-8-7-7----5-5-5---8-8-8---3-3-3--------------|

e|-----------------------------------------------------------------------------|
B|-----------------------------------------------------------------------------|
G|-----------------------------------------------------------------------------|
D|-10-10-10-8-8-8-7-7----5-5-5---8-8-8---3-3-3---10-10-10-9-9-9-7-7------------|
A|-10-10-10-8-8-8-7-7----5-5-5---8-8-8---3-3-3---10-10-10-9-9-9-7-7------------|
D|-10-10-10-8-8-8-7-7----5-5-5---8-8-8---3-3-3---10-10-10-9-9-9-7-7------------|

e|----------------------------------------------------------------|
B|----------------------------------------------------------------|
G|----------------------------------------------------------------|
D|-5-5-5---8-8-8---3-3-3----10-10-10-9-9-9-7-7----5---------------|
A|-5-5-5---8-8-8---3-3-3----10-10-10-9-9-9-7-7----5---------------|
D|-5-5-5---8-8-8---3-3-3----10-10-10-9-9-9-7-7----5---------------|
Tap to rate this tab
# A B C D E F G H I J K L M N O P Q R S T U V W X Y Z