Song name
# A B C D E F G H I J K L M N O P Q R S T U V W X Y Z

Misc Unsigned Bands - Empire - For A While tab

Help us improve GuitareTab! Take a short survey!
-------------------------------------------------------------------------------
			     SONG NAME - Band Name
-------------------------------------------------------------------------------
Tabbed by:
Email:

Tuning:Standard Capo on 3rd


         Intro (plays throughout verse)
e|-----------------------------------------------------------------------------|
B|-----------------3-----------------------3----------------------3------------|
G|---------0----------0----0--------0---------0----0--------0---------0---0----|
D|------0-----0----------0--------0----0---------0--------0----0--------0------|
A|---5--------------------------3-----------------------0----------------------|
E|-----------------------------------------------------------------------------|


e|-----------------------------------------------------------------------------|
B|-------------5---------------------------------------------------------------|
G|--------0-------0----0-------------------------------------------------------|
D|------0---0--------0---------------------------------------------------------|
A|---3-------------------------------------------------------------------------|
E|-----------------------------------------------------------------------------|

       Verse (chords - guitar 2)
e|---3--------------------------0------------------------0---------------0---|
B|---0--------------------------1------------------------1---------------1---|
G|---0--------------------------0------------------------2---------------0---|
D|---0--------------------------2------------------------2---------------2---|
A|---2--------------------------3------------------------0---------------3---|
E|---3--------------------------x------------------------x---------------x---|

Chorus: same chords as verse exept in a strumming rhythm

Chorus (guitar 1)
e|---------------3/5----3-----------------------3/5---3----------------------|
B|--------------------------2---------------1-------------1------------------|
G|----------0----------------------------------------------------------------|
D|-------------------------------------2-------------------------------------|
A|------2--------------------------3-----------------------------------------|
E|---3-----------------------------------------------------------------------|

e|-------------------3/5----3------------------------3/5----3----------------|
B|--------------1----------------1----------------1--------------1-----------|
G|---------------------------------------------------------------------------|
D|-------2-----------------------------------2-------------------------------|
A|----0----------------------------------3-----------------------------------|
E|---------------------------------------------------------------------------|

Bridge (Am) (C) (G)

| /  slide up
| \  slide down
| h  hammer-on
| p  pull-off
| ~  vibrato
| +  harmonic
| x  Mute note
===============================================================================
Related for Empire - For A While tab