Song name
# A B C D E F G H I J K L M N O P Q R S T U V W X Y Z

Misc Unsigned Bands - Rejected Possibilities - The Worst Of It tab

Tabbed by: RPguitarplaya
Tuning: Drop B


(Verse 1)

e|---------------------------------------------------------------------------|
B|---------------------------------------------------------------------------|
G|---------------------------------------------------------------------------|
D|---------------------------------------------------------------------------|
A|-3-------------3-5----------------3-1--------------3-3h4p3-1---------------|
E|--x0-x0-x0-x0-------x3-x3-x3-x3--------x1-x1-x1-x1-------------------------|

(Chorus)

e|--------------------------------------------------------------------------|
B|--------------------------------------------------------------------------|
G|-------------------5-5-5-6-6-6-6-6-6-3-3-3--------------------------------|
D|-7-7-7-5-5-5-5-5-5-5-5-5-6-6-6-6-6-6-3-3-3--------------------------------|
A|-7-7-7-5-5-5-5-5-5-3-3-3-4-4-4-4-4-4-1-1-1--------------------------------|
E|-5-5-5-3-3-3-3-3-3--------------------------------------------------------|

(Verse 2)

e|--------------------------------------------------------------------------|
B|--------------------------------------------------------------------------|
G|--------------------------------------------------------------------------|
D|-3--------------5---------------3--------------------5--------------------|
A|-0x-0-0-0-0-0-0-0x-0-0-0-0-0-0--0x--1-1-1-1-1-1-1-1--0x-1-1-1-1-1-1-1-----|
E|-1--0-0-0-0-0-0-3--0-0-0-0-0-0--1---1-1-1-1-1-1-1-1--3--1-1-1-1-1-1-1-----|


| /  slide up
| \  slide down
| h  hammer-on
| p  pull-off
| ~  vibrato
| +  harmonic
| x  Mute note
Tap to rate this tab
# A B C D E F G H I J K L M N O P Q R S T U V W X Y Z