Song name
# A B C D E F G H I J K L M N O P Q R S T U V W X Y Z

Misc Unsigned Bands - Adolescent Turmoil - Nothings The Same tab

Intro-play 4 times


---------------------------------------------------------------|
---------------------------------------------------------------|
---------------------------------------------------------------|
---------------------------------------------------------------|
-----------------------2-2-2-2-3-3-3-3-2-----------------------|
---3-3-3-3-2-2-2-2---------------------------------------------|

Verses-play 4 times
---------------------------------------------|
---------------------------------------------|
---------------------------------------------|
-----------------------2-2-2-2-2-2-2-2-0-----|
---2-2-2-2-0-0-0-0-2-2-2-2-3-3-3-3-0---------|
---3-3-3-3-2-2-2-2---------------------------|


Chorus-Play 4 times
---3-3-3-3---3-3-3-3---0-0-0-0---0-0-0-0-|
---3-3-3-3---3-3-3-3---0-0-0-0---0-0-0-0-|
---0-0-0-0---0-0-0-0---0-0-0-0---0-0-0-0-|
---0-0-0-0---0-0-0-0---2-2-2-2---2-2-2-2-|
---2-2-2-2---0-0-0-0---2-2-2-2---3-3-3-3-|
---3-3-3-3---2-2-2-2---0-0-0-0---0-0-0-0-|

Bridge- play 2 times
-------------3-3-3-3-----------3-3-3-3-----------0-0-0-0-----------0-0-0-0-|
-------------3-3-3-3-----------3-3-3-3-----------0-0-0-0-----------0-0-0-0-|
-------------0-0-0-0-----------0-0-0-0-----------0-0-0-0-----------0-0-0-0-|
-------------0-0-0-0-----------0-0-0-0-2-2-2-2-2-2-2-2-2-2-2-2-2-2-2-2-----|
---2-2-2-2-2-2-2-2-0-0-0-0-0-0-0-0-2-2-2-2-2-2-2-2-3-3-3-3-3-3-3-3---------|
---3-3-3-3-3-3-3-3-2-2-2-2-2-2-2-2-----------0-0-0-0-----------0-0-0-0-----|
Tap to rate this tab
# A B C D E F G H I J K L M N O P Q R S T U V W X Y Z