Song name
# A B C D E F G H I J K L M N O P Q R S T U V W X Y Z

Misc Unsigned Bands - Lost Kids - Coca Cola Freaks tab

Hej Hej... her er et link så du kan høre sangen. den begynder efter de der to har
snakket lidt ... http://www.youtube.com/watch?v=Yc5WibDUsEg


Spil det her:
|-------------------------------------|
|-------------------------------------|
|-------------------------------------|
|-5-5-5-5-5/7-7-7-7-7/9-9-9-7/9-9-9-9-|
|-5-5-5-5-5/7-7-7-7-7/9-9-9-7/9-9-9-9-|
|-3-3-3-3-3/5-5-5-5-5/7-7-7/5/7-7-7-7-|

Når du har spillet det der 7 gange skal
du spille mellemspil, det er ca. sådan:

|---------------------------------------------------------------|
|---------------------------------/15---15---15-----------------|
|-17B-P15-----15----15-15-17-15/-----17B--17B--17B-15-15-17-15/-|
|---------17----17B---------------------------------------------|
|---------------------------------------------------------------|
|---------------------------------------------------------------|

|-------------------------------------|
|-------------------------------------|
|-------------------------------------|
|-5-5-5-5-5/7-7-7-7-7/9-9-9-7/9-9-9-9-|
|-5-5-5-5-5/7-7-7-7-7/9-9-9-7/9-9-9-9-|
|-3-3-3-3-3/5-5-5-5-5/7-7-7/5/7-7-7-7-|X4

|---------------------------------------------------------------------------|
|-----------------------------------/15-15-15-----15---15-------------------|
|-17-15--------15----15-15-17-15/--------------17B--17B--17B-15-15-17-15/---|
|-------17-15-----17B-------------------------------------------------------|
|---------------------------------------------------------------------------|
|---------------------------------------------------------------------------|

|-----------------------------------------------------------|
|-/15-15-15-----15---15--15-----15-H18-P15-H18-P17-(osv...)-|
|------------17B--17B----17B--------------------------------|
|-----------------------------------------------------------|
|-----------------------------------------------------------|
|-----------------------------------------------------------|

det var det håber du kan bruge det
Tap to rate this tab
 
# A B C D E F G H I J K L M N O P Q R S T U V W X Y Z