Song name
# A B C D E F G H I J K L M N O P Q R S T U V W X Y Z

Misc Unsigned Bands - Obsessed - Leap Of Faith tab

This tab is definately correct, as it's been tabbed by the lead guitarist of Obsessed. 

       INTRO   (GUITAR 1)
|-----------------|-----------------|-----------------|-----------------|
|-----------------|-----------------|-----------------|-----------------|
|-----------------|-----------------|-----------------|-----------------|
|--------12-9-7-6-|--------12-9-6---|--------12-9-7-6-|--------12-------|
|---12-9----------|---12-9----------|---12-9----------|---12-9----9-12--|
|-9---------------|-9---------------|-9---------------|-9---------------|

|-----------------|-----------------|-----------------|-----------------|
|-----------------|-----------------|-----------------|-----------------|
|-----------------|-----------------|-----------------|-----------------|
|--------12-9-7-6-|--------12-9-6---|--------12-9-7-6-|--------12-------|
|---12-9----------|---12-9----------|---12-9----------|---12-9----12-9--|
|-9---------------|-9---------------|-9---------------|-9---------------|



VERSE   (GUITAR 2-guitar 1 keeps playing intro)
|-----------------|-----------------|-----------------|-----------------|
|-----------------|-----------------|-----------------|-----------------|
|-----------------|-----------------|-----------------|-----------------|
|-9---------------|-5---------------|-7---------------|-4---------------|
|-7---------------|-3---------------|-5---------------|-2---------------|
|-----------------|-----------------|-----------------|-----------------|
                                                                         X2

|-----------------|-----------------|-----------------|-----------------|
|-----------------|-----------------|-----------------|-----------------|
|-----------------|-----------------|-----------------|-----------------|
|-9--9--9--9--9---|-5--5--5--5--5---|-7--7--7--7--7---|-4--4--4--4--4---|
|-7--7--7--7--7---|-3--3--3--3--3---|-5--5--5--5--5---|-2--2--2--2--2---|
|-----------------|-----------------|-----------------|-----------------|
                                                                         X2

CHORUS   (GUITAR 1)
|-----------------|-----------------|-----------------|-----------------|
|-----------------|-----------------|-----------------|-----------------|
|-----------------|-----------------|-----------------|-----------------|
|---7-5-0-7-------|---7-5-0-7-------|---7-5-0-7-------|---7-5-5-0-------|
|-3---------------|-0---------------|-5---------------|-7---------------|
|-----------------|-----------------|-----------------|-----------------|
                                                                         X2
         (GUITAR 2)   
|-----------------|-----------------|-----------------|-----------------|
|-----------------|-----------------|-----------------|-----------------|
|-----------------|-----------------|-----------------|-----------------|
|-4-4-4-4-4-4-4-4-|-7-7-7-7-7-7-7-7-|-3-3-3-3-3-3-3-3-|-5-5-5-5-5-5-5-5-|
|-2-2-2-2-2-2-2-2-|-5-5-5-5-5-5-5-5-|-1-1-1-1-1-1-1-1-|-3-3-3-3-3-3-3-3-|
|-----------------|-----------------|-----------------|-----------------|


ORDER OF SONG:
INTRO
VERSE X2
CHORUS X2
VERSE X2
CHORUS X4
INTRO 


Tap to rate this tab
# A B C D E F G H I J K L M N O P Q R S T U V W X Y Z