Song name
# A B C D E F G H I J K L M N O P Q R S T U V W X Y Z

Misc Unsigned Bands - Pickled Fat And Placid Crate - Trogdor tab

TROGDOR!
By Strong Bad
Cover By Pickled Fat and Placid Crate
Album “The Scariest Album”
Tabbed By Jon Clarke Aka Pickled Fat aka Omfgjon
Email Me at Jonathan.thetrooper@gmail.com
Visit PFAPC's iLike at http://www.ilike.com/artist/Pickled+Fat+and+Placid+Crate
Visit PFAPC's iLike on Facebook at
http://apps.facebook.com/ilike/artist/Pickled+Fat+and+Placid+Crate

Comment Please
If you Misunder Stand this Tab: email or Comment
Tuning : Drop D 

Top Part: Lead (Equiment needed: Whammy)
Bottom Part: Rhythm (Equiment needed: Kill Switch)

Lead Intro:
|------------------------------------10-10|
|--10-8-----8------------10—8-10-8--------|
|--------10---10--7-7---------------------|x2
|-----------------------------------------|
|-----------------------------------------|
|-----------------------------------------|
Bomb the Whammy on the repeat at the 10th fret on E string
Then The Intro/chorus

Chorus/Intro
|-------------------------------|
|-------------------------------|
|-------------------------------|x2
|-----3-----------3-------------|
|-----1-----5-----1---5---3-5---|
|-000---000-5-000---0-5-0-3-5---|
|                               |
|-------------------------------|
|-------------------------------|
|-------------------------------|x2
|-------------------------------|
|-----7-----5-----7---5---3-5---|
|-000-7-000-5-000-7-0-5-0-3-5---|
  
Verse: 
|---------------------------------|
|---------------------------------|
|---------------------------------|
|-----3-----5-----3-----5-----3~3-|x2
|-----1-----3-----1-----3-----1~1-|
|-0-0---0-0---0-0---0-0---0-0-----|
| * *   * *   * *   * *   * *     |
|---------------------------------|
|---------------------------------|
|---------------------------------|
|-----(Rest)----------------------|
|---------------------------------|
|---------------------------------|
|---------------------------------|

|---------------------------------|
|---------------------------------|
|-----3-----5-----3-----5-----3~3-|x2
|-----1-----3-----1-----3-----1~1-|
|-0-0---0-0---0-0---0-0---0-0-----|
| * *   * *   * *   * *   * *                                     |
|------------------------------------10-10-|
|--10-8-----8------------10—8-10-8---------|
|--------10---10--7-7----------------------|
|------------------------------------------|
|------------------------------------------|
|------------------------------------------|






Then Chorus
|-------------------------------|
|-------------------------------|
|-------------------------------|x2
|-----3-----------3-------------|
|-----1-----5-----1---5---3-5---|
|-000---000-5-000---0-5-0-3-5---|
|                               |
|-------------------------------|
|-------------------------------|
|-------------------------------|x2
|-------------------------------|
|-----7-----5-----7---5---3-5---|
|-000-7-000-5-000-7-0-5-0-3-5---|

Then

“Burninating the country side”
|-------------------------------|
|-------------------------------|
|-------------------------------|x4
|-------------------------------|
|-------------------------------|
|--0-3h5--0-3h5--0-3h50-3h5-5-5-|
|                               |
|-------------------------------|
|-------------------------------|
|-------------------------------|x4
|-------------------------------|
|-------------------------------|
|--0-3h5--0-3h5--0-3h50-3h5-5-5-|

Chorus

SOLO! Which is a Harmonizing Solo (Twin Solo)

|-----------------------|15trem|17trem|18trem|
|--[15]~~~~~~~~~~~~~~~--|--------------------|
|-----------------------|--------------------|
|-----------------------|--------------------|
|-----------------------|--------------------|
|-----------------------|--------------------|
|                       |                    |
|-----------------------|10trem|12trem|13trem|
|--9Trl10—10b(12)—10~\--|--------------------|
|-----------------------|--------------------|
|-----------------------|--------------------|
|-----------------------|--------------------|
|-----------------------|--------------------|

Harmonizing Solo (Twin Solo)
       X8              Measure x4
|-(18p17p15)-18b+|------------------------|----------------|
|----------------|------------------------|----------------|
|----------------|------------------------|-17b(20)(UnBd)Ah|
|----------------|-------15h17-------15h17|----------------|
|----------------|-15h17-------15h17------|----------------|
|----------------|------------------------|----------------|
|                |                        |                |
|      X8	  |	Measure x4	    |  Then:         |
|--(13p12p10)13B+|------------------------|----------------|
|----------------|------------------------|----------------|
|----------------|------------------------|-12b(15)(UnBd)Ks|
|----------------|------10h12-------10h12-|----------------|
|----------------|10h12-------10h12-------|----------------|
|----------------|------------------------|----------------|
Solo Ends




Verse
|---------------------------------|
|---------------------------------|
|---------------------------------|
|-----3-----5-----3-----5-----3~3-|x2
|-----1-----3-----1-----3-----1~1-|
|-0-0---0-0---0-0---0-0---0-0-----|
| * *   * *   * *   * *   * *     |
|---------------------------------|
|---------------------------------|
|---------------------------------|
|-----(Rest)----------------------|
|---------------------------------|
|---------------------------------|
|---------------------------------|

|---------------------------------|
|---------------------------------|
|-----3-----5-----3-----5-----3~3-|x2
|-----1-----3-----1-----3-----1~1-|
|-0-0---0-0---0-0---0-0---0-0-----|
| * *   * *   * *   * *   * *     |
|------------------------------------10-10-|
|--10-8-----8------------10—8-10-8---------|
|--------10---10--7-7----------------------|
|------------------------------------------|
|------------------------------------------|
|------------------------------------------|

Final Chorus
|-------------------------------|
|-------------------------------|
|-------------------------------|x2
|-----3-----------3-------------|
|-----1-----5-----1---5---3-5-5-|
|-000---000-5-000---0-5-0-3-5-5-|
|                               |
|-------------------------------|
|-------------------------------|
|-------------------------------|x2
|-------------------------------|
|-----7-----5-----7---5---3-5-5-|
|-000-7-000-5-000-7-0-5-0-3-5-5-|

Then Yell 
“And The Trogdor comes in the Night!” like it is in Guitar hero… the Word “Night” is SUPER LONG!

Key:
(*) Palm Mute
(~) Ring Out
[15]~ Whammy Like Crazy!
(tr) Trill
(Trem) Tremolo
(rest) Rest (Wait)
(\) Slide down
(/) Slide Up
(b) Bend
(UnBd) Unbend (Slowly let go)
(Ks) Kill Switch (Like from the Song You Really Got Me by Van Halen)
(Ah) Artifical Harmonic
(NH) Natural Harmonic
(H) Hammer-on
(P) Pull Off

(Update) For Rythym: Only Do Verse part Once!!!
Tap to rate this tab
 
# A B C D E F G H I J K L M N O P Q R S T U V W X Y Z