Song name
# A B C D E F G H I J K L M N O P Q R S T U V W X Y Z

Misc Unsigned Bands - The Violent Husbands - Grandmother tab

Bandsite: www.theviolenthusbands.tv
MySpace:  www.myspace.com/theviolenthusbands  

Intro Chords
Bm F# G D Bm

Intro Riff
|-------------------------------------------------------------------------|
|-------------------------------------------------------------------------|
|-------------------------------------------------------------------------|
|-------------------------------------------------------------------------|
|-12-12-12-9---12-12-12-9---12-12-12-9-7-5-7-9-7-5-7----------------------|
|----------------------------------------------------7-7-5h7-7------------| 

Bridge Chords
C G Bm B7

Bridge Riff
|-8---7-5-3-5-2-----------------------------------------------------------|
|-------------------------------------------------------------------------|
|-------------------------------------------------------------------------|
|-------------------------------------------------------------------------|
|-------------------------------------------------------------------------|
|-------------------------------------------------------------------------| 
This can also be played when you play C  Bm A G A F# on the time of the notes above


Solo
|-------------------------------------------------------------------------|
|----------12---11-12-11-11-----------------------------------------------|
|-11-10-11--------------------11-9------------------11-9-11-9-7-6---------|
|----------------------------------12-11-12---9-8-9-----------------------|
|-------------------------------------------------------------------------|
|-------------------------------------------------------------------------|

|-------------------------------------------------------------------------|
|--------------------------------------------------------------12-11-12---|
|-12-12-11-9-7-6-------11-11-------9-9---7------------11-10-11------------|
|----------------9-----------12-11---------9-7----------------------------|
|--------------------9-------------------------10-9-----------------------|
|-------------------------------------------------------------------------|

|-9-10-9-9----------------------------------------------------------------|
|-------------------------------------------------------------------------|
|------------12-12-9------------------------------------------------------|
|--------------------12-11-9\0--------------------------------------------|
|-------------------------------------------------------------------------|
|-------------------------------------------------------------------------| 


Fill after solo
|--5-7-7--7--4-6-6---2-0--------------------------------------------------|
|------------------------3-2-3--------------------------------------------|
|-------------------------------------------------------------------------|
|-------------------------------------------------------------------------|
|-------------------------------------------------------------------------|
|-------------------------------------------------------------------------| 
Tap to rate this tab
# A B C D E F G H I J K L M N O P Q R S T U V W X Y Z