Song name
# A B C D E F G H I J K L M N O P Q R S T U V W X Y Z

Misc Unsigned Bands - Urbangermany - Does He Know tab

URBAN'S MYSPACE

http://www.myspace.com/urbangermany

-----------------------------------------------------------------------------

Intro / Verse / Chorus

Does he know you raise your eyebrow....

--x--2---x---x---x-------x--1---x--2~---x--2-|
--4--4---x---2~--x---2---2--2---x--2~---x--2-|
--3------x---4~--x---4---1------x--3~---x--3-|
--4------x---3~--x---3---3------x-------x----|
--2------x---4~--x---4---1------x-------x----|
--x------x---x---x-------x------x-------x----|

and repeat for the whole song !


----------------------------------------------------------------------------
(x= mute/slap) (/= slide up/down) (h= hammer on) (p= pull off) (~= let ring)
Tap to rate this tab
 
# A B C D E F G H I J K L M N O P Q R S T U V W X Y Z