Song name
# A B C D E F G H I J K L M N O P Q R S T U V W X Y Z

Misc Unsigned Bands - The Darts - There For Me tab

-------------------------------------------------------------------------------
			     There For me - The Darts
-------------------------------------------------------------------------------
Tabbed by: Royce

Tuning: Standard

   Intro\Verse
e|--------------------------------------------------------|
B|--------------------------------------------------------|
G|--------------------------------------------------------|
D|----7-4-------------------------------------------------|  x6
A|--5-----7-5h7----7-4---------9-5---------5-5-7-7-5------|
E|---------------5-----7-5/7-7-----7-5-3-3----------------|

   Chorus
e|--5--------5--------5--------3-----------------|
B|--7--------5--------5--------3-----------------|
G|--7---x8---6---x8---5---x8---4---x8------------|     x5
D|--7--------7--------7--------5-----------------|
A|--5--------7--------7--------5-----------------|
E|-----------5--------5--------3-----------------|

    Line Up
  Intro
  Verse 
  Chorus
  Verse
  Chorus
  Verse (Just guitar and Singer)
  Chorus

| /  slide up
| \  slide down
| h  hammer-on
| p  pull-off

Band Official Website: http://www.myspace.com/thedartsmusic
===============================================================================
Tap to rate this tab
# A B C D E F G H I J K L M N O P Q R S T U V W X Y Z