Song name
# A B C D E F G H I J K L M N O P Q R S T U V W X Y Z

Misc Unsigned Bands - Frank And Sean Omeara - Grace tab

-------------------------------------------------------------------------------
			     Grace - Frank And Sean Omeara
-------------------------------------------------------------------------------
Tabbed by:Brendon Lee McHel
Email:-none-

Tuning:Standard

E||--------|------------------------|------------------------|-------------------------|
B||--------|------------------------|--1----1----0--------1--|------------------1------|
G||--0-----|--------------------0---|------------------------|--2----------2-----------|
D||-----2--|-------------2----------|------------------------|---------3---------------|
A||--------|--3---3-----------------|------------------------|-------------------------|
E||--------|------------------------|------------------------|-------------------------|
   
---------------------|-----------------------------|--------------------------|
--0------------------|--------0--1--------L--------|--------------------------|
------------------0--|--2--------------------2-----|--0-----------------------|
---------------------|-----------------------------|-----------2--------L--2--|
---------------------|-----------------------------|-------3------------------|
---------------------|-----------------------------|--------------------------|


 
---------------------------|---------------------------|--------------------------|
---------------------------|---------------------------|--------------------------|
---------------------------|------------------0--------|---------------------0----|
--2----0------0------2-----|--0--------------------2---|----------------2---------|
---------------------------|---------------------------|--3------3----------------|
---------------------------|---------------------------|--------------------------|


--------------------------|-------------------------|----------------------|
--1----1----0--------1----|------------------1------|--0-------------------|
--------------------------|--2----------2-----------|------------------0---|
--------------------------|---------3---------------|----------------------|
--------------------------|-------------------------|----------------------|
--------------------------|-------------------------|----------------------|

            
------------------------|---------------------------|-------------------------|------------------|
------0--1--------L-----|---------------------------|-------------------------|------------------|
--2------------------2--|--0---------------------0--|--0----------------------|------------------|
------------------------|------------2--------5-----|---------3---2------0----|------------------|
------------------------|-------3-------------------|-------------------------|--3-------------- |
------------------------|---------------------------|-------------------------|------------------|


---------------------|--------------------------|------------0----------|------------------------|
------------------3--|--3------0----------------|-------0-----------3---|--1----------------1----|
---------------------|--------------0-----------|--0--------------------|---------2----2---------|
---------------------|-------------------0------|-----------------------|------------------------|
--L------------------|--------------------------|-----------------------|------------------------|
---------------------|--------------------------|-----------------------|------------------------|


    
-----------------------------|----------------------|-----------------------|-------------------|
-----------------------------|---------0--1---------|-----------------------|-------------------|
--2-----0--------------------|--2----------------2--|--0--------------------|-------------------|
-----------------------------|----------------------|-------------3----2----|--0----------------|
---------------------3-------|----------------------|---------3-------------|-------------------|
-----------------------------|----------------------|-----------------------|-------------------|


-----------------------|----------------------|-------------0-----------|-----------------------|
------------------3----|--3------0------------|--------0---------3------|--1---------------1----|
-----------------------|------------0---------|--0----------------------|---------2---2---------|
--L--------------------|-------------------0--|-------------------------|-----------------------|
-----------------------|----------------------|-------------------------|-----------------------|
-----------------------|----------------------|-------------------------|-----------------------|


--------------------------|--------------------------|----------------------------|
--------------------------|--------0--1--------L-----|----------------------------|
--2-----0-----------------|--2--------------------2--|--0---------------------0---|
--------------------------|--------------------------|------------2--------L------|
--------------------3-----|--------------------------|--------3-------------------|
--------------------------|--------------------------|----------------------------|

      
---------------------------|-------------------|--------------------||
---------------------------|-------------------|--------------------||
--0------------------------|-------------------|--------------------||
---------3----2------0-----|-------------------|--------------------||
---------------------------|--3----------------|--L-----------------||
---------------------------|-------------------|--------------------||





L - tied note

Tap to rate this tab
 
# A B C D E F G H I J K L M N O P Q R S T U V W X Y Z