Song name
# A B C D E F G H I J K L M N O P Q R S T U V W X Y Z

Misc Unsigned Bands - Abingdon Boys School - Innocent Sorrow tab

-------------------------------------------------------------------------------
			     Innocent Sorrow - Abingdon Boys School
-------------------------------------------------------------------------------
Tabbed by:Oxalis
Email:jpopandguitar@yahoo.com

Tuning:standard
i've been searching all over the web for tabs of this band, but they don't seem to 
so i am the first one to do this. enjoy it please.(no solo though, srry)

intro (keep repeating as needed)
e|----------------------------------------------------------------------------------|
B|----------------------------------------------------------------------------------|
G|----------------------------------------------------------------------------------|
D|---2--2----4---2---3--------------------------------------------------------------|
A|---2--2----4---2---3--------------------------------------------------------------|
E|---2--2----4---2---3--------------------------------------------------------------|
 nerdy dude starts singing (listen to the song for how many times needed)
e|---------------------------------------------------------------------------------|
B|---------------------------------------------------------------------------------|
G|---------------------------------------------------------------------------------|
D|----5-5--5---5-------------------------------------------------------------------|
A|----5-5--5---5-------------------------------------------------------------------|
E|----5-5--5---5-------------------------------------------------------------------|
chorus(keep repeating)
e|-------------------------------------------------------------------------------------|
B|---3---3---3----6---6---6----5---5---------------------------------------------------|
G|---3---3---3----6---6---6----5---5---------------------------------------------------|
D|---3---3---3----4---4---4----3---3---------------------------------------------------|
A|-------------------------------------------------------------------------------------|
E|-------------------------------------------------------------------------------------|
            (do same thing for all chorus)
end solo(it's also throughout the song, if you listen closely)
e|------------------------------------------------------------------------------|
B|------------------------------------------------------------------------------|
G|--------------------------------4-4-4-4---3-3-3-3---5-5-5-5---7-7-7-7--5-5-5--|
D|----3-3-3-3---2-2-2-2--3-3-3-3------------------------------------------------|
A|------------------------------------------------------------------------------|
E|------------------------------------------------------------------------------|
        it's a little longer, but i can't really tab that much.

well that's pretty much it. hope you thought it was ok.

| /  slide up
| \  slide down
| h  hammer-on
| p  pull-off
| ~  vibrato
| +  harmonic
| x  Mute note
===============================================================================
Tap to rate this tab
# A B C D E F G H I J K L M N O P Q R S T U V W X Y Z