Song name
# A B C D E F G H I J K L M N O P Q R S T U V W X Y Z

Misc Unsigned Bands - Autopilot - Popular Mechanics tab

Standard
Verse:
e---------------------------|
B---------------------------|
G---------------------------|
D-3-3----------5-5----------|
A-1-1-5--5-5-5-3-3-3--3-3-3-|
E-----3--3-3-3-----1--1-1-1-|

Chorus

e---------------------------------------------|
B---------------------------------------------|
G---------------------------------------------|
D-9-9-9-9-9-9-9-9-7-7-7-7-7-7-7-7-------------|
A-7-7-7-7-7-7-7-7-5-5-5-5-5-5-5-5-5-----------|
E---------------------------------3-----------|

The power chord in the 3rd fret is played 16 times(i'm lazy)
www.myspace.com/autopilotband
Tap to rate this tab
# A B C D E F G H I J K L M N O P Q R S T U V W X Y Z