Song name
# A B C D E F G H I J K L M N O P Q R S T U V W X Y Z

Misc Unsigned Bands - Wraith - Thou Darkest Days tab

-----------------------------------------------------------------------------
			     Thou Darkest Days - Wraith
----------------------------------------------------------------------------
Tabbed by:Cjay

This is the rythym guitar 4 the song

Tuning:My own

Tune the 5th string up about half a srep

e|--------------------------------------------------------------------------|
B|--------------------------------------------------------------------------|
G|--------------------------------------------------------------------------|
D|--00000000---3-5-3-0---00000000-5-0-3-0-2---------------------------------|
A|--00000000---3-5-3-0---00000000-5-0-3-0-2---------------------------------|
E|--------------------------------------------------------------------------|

e|--------------------------------------------------------------------------|
B|--------------------------------------------------------------------------|
G|--------------------------------------------------------------------------|
D|--00000000--5-3-5-0-00000000-5-0-3-0-2------------------------------------|
A|--00000000--5-3-5-0-00000000-5-0-3-0-2------------------------------------|
E|--------------------------------------------------------------------------|

e|--------------------------------------------------------------------------|
B|--------------------------------------------------------------------------|
G|--------------------------------------------------------------------------|
D|--00000000---3-5-3-0---00000000-5-0-3-0-2---------------------------------|
A|--00000000---3-5-3-0---00000000-5-0-3-0-2---------------------------------|
E|--------------------------------------------------------------------------|

e|--------------------------------------------------------------------------|
B|--------------------------------------------------------------------------|
G|--------------------------------------------------------------------------|
D|--00000000--5-3-5-0-00000000-5-0-3-0-2------------------------------------|
A|--00000000--5-3-5-0-00000000-5-0-3-0-2------------------------------------|
E|--------------------------------------------------------------------------|

e|--------------------------------------------------------------------------|
B|--------------------------------------------------------------------------|
G|--------------------------------------------------------------------------|
D|--00000000---3-5-3-0---00000000-5-0-3-0-2---------------------------------|
A|--00000000---3-5-3-0---00000000-5-0-3-0-2---------------------------------|
E|--------------------------------------------------------------------------|

e|--------------------------------------------------------------------------|
B|--------------------------------------------------------------------------|
G|--------------------------------------------------------------------------|
D|--00000000--5-3-5-0-00000000-5-0-3-0-2------------------------------------|
A|--00000000--5-3-5-0-00000000-5-0-3-0-2------------------------------------|
E|--------------------------------------------------------------------------|


| /  slide up
| \  slide down
| h  hammer-on
| p  pull-off
| ~  vibrato
| +  harmonic
| x  Mute note
===============================================================================
Tap to rate this tab
# A B C D E F G H I J K L M N O P Q R S T U V W X Y Z