Song name
# A B C D E F G H I J K L M N O P Q R S T U V W X Y Z

Misc Unsigned Bands - Autopilot - Grapefruit Battering Ram tab

Standard

Verse:

e-------------------------------------------------------------|
B-------------------------------------------------------------|
G-------------------------------------------------------------|
D-9--9-9--9-9-9-----------------------------7-7-7-7-7-7-7-7-7-|
A-7--7-7--7-7-7-5--5-5--5-5-5-7--7-7--7-7-7-5-5-5-5-5-5-5-5-5-|
E---------------3--3-3--3-3-3-5--5-5--5-5-5-------------------|

Chorus:

e-----------------------------------------------|
B-----------------------------------------------|
G-----------------------------------------------|
D-----------------------------------------------|
A10-10-10-1010107--7-7--7-7-7-------------------|
E-8--8-8--8-8-8-5--5-5--5-5-5-------------------|
Tap to rate this tab
 
# A B C D E F G H I J K L M N O P Q R S T U V W X Y Z