Song name
# A B C D E F G H I J K L M N O P Q R S T U V W X Y Z

Misc Unsigned Bands - Din - Fly On The Wall tab

-------------------------------------------------------------------------------
			     FLY ON THE WALL - Din
-------------------------------------------------------------------------------
Tabbed by: Maxg93
Email: Max_g_93@yahoo.com

Here's an awesome, commonly overlooked song i heard from guitar hero 1.

Only thing i'm worried about in this is the intro chords, i could never quite get what 
are exactly so i guess on the notes, the rest is pretty solid.

Tuning: Standard
Intro
e|---------------------------------------------------------------------------|
B|---------------------------------------------------------------------------|
G|---------------------------------------------------------------------------|
D|-2-4-2-4~--x--2-4~-2-4-4-2-2-4-2-4-x-2-4~--2-4-4-2-------------------------|
A|-2-4-2-4~--x--2-4~-2-4-4-2-2-4-2-4-x-2-4~--2-4-4-2-------------------------|
E|-0-2-0-2~--x--0-2~-0-2-2-0-0-2-0-2-x-0-2~--0-2-2-0-------------------------|
Intro Solo
e|-------------------------------------------------------------------------------|
B|----------------------------------10~-12-10p7----------------------------------|
G|--7b-----9b--9p7--9-9-9-9p7---7b----------------7-9-7-8b-8b-8b-8b-9-7-9-7-9p7--|
D|-----9~---------------------9----9---------------------------------------------|
A|-------------------------------------------------------------------------------|
E|-------------------------------------------------------------------------------|

e|---------------------------------------------------------------------------|
B|---------------------------------------------------------------------------|
G|------------9--7-----9-7---------------------------------------------------|
D|-9-7-9~-7-9-----9--------9-7-7-7h9~-hold-this-forever----------------------|
A|---------------------------------------------------------------------------|
E|---------------------------------------------------------------------------|
Verse riff: Pretty, simple, and pretty simple
e|---------------------------------------------------------------------------|
B|---------------------------------------------------------------------------|
G|---------------------------------------------------------------------------|
D|-7-x-7~-x-10-10---10/12-12-------------------------------------------------|
A|-7-x-7~-x-10-10---10/12-12-------------------------------------------------|
E|-5-x-5~-x--8--8----8/10-10-------------------------------------------------|
Lower Verse Riff
e|---------------------------------------------------------------------------|
B|---------------------------------------------------------------------------|
G|---------------------------------------------------------------------------|
D|-5~-x-5-x---4-4-4-4-5-5-x--------------------------------------------------|
A|-5~-x-5-x---4-4-4-4-5-5-x--------------------------------------------------|
E|-3~-x-3-x---2-2-2-2-3-3-x--------------------------------------------------|
Chorus
e|---------------------------------------------------------------------------|
B|---------------------------------------------------------------------------|
G|--7~~---10~~--14~~-------1st-ending----------------------------------------|
D|--7~~---10~~--14~~--14~--5-5-4-5-4-4-5-------------------------------------|
A|--5~~----8~~--12~~--14~--5-5-4-5-4-4-5-------------------------------------|
E|--------------------12~--3-3-2-3-2-2-3-------------------------------------|
Second ending
e|--2------2-----2---5-----5-----5---9-------9------9---------------------------------|
B|----3------3-----3---6-----6-----6---10------10-----10------------------------------|
G|------2~-----2---------5~----5----------9~------9-----------------------------------|
D|----------------------------------------------------------2~-2*-2*-2*-2*-2*-2*-2*---|
A|----------------------------------------------------------2~-2*-2*-2*-2*-2*-2*-2*---|
E|---------------------------------------------------------00~-0*-0*-0*-0*-0*-0*-0*---|
Interlude-Two guitars, or octaves
e|---------------------------------------------------------------------------|
B|--------------------------------------------played-twice-------------------|
G|--10-9------10-9--------12-9-7~---12-9-7~----------------------------------|
D|---x-x--10~--x-x--10~----x-x-x~----x-x-x~------------------9~--------------|
A|---8-7---x~--8-7---x~---10-7-5~---10-7-5~----second-ending-x~--------------|
E|---------8~--------8~--------------------------------------7~--------------|
I think one guitar, maybe a harmony part
e|---13-12-----13-12------15-12-----15-12-----13-12-----13-12----12-13-14~~-------|
B|---------13~-------13~--------15~-------12~-------13~-------13------------------|
G|--------------------------------------------------------------------------------|
D|--------------------------------------------------------------------------------|
A|--------------------------------------------------------------------------------|
E|----------------------------------------------------------------------PICKSLIDE!|
SOLO!!!
e|-17--17-17-17-17-15-15-14-15-14-14-12-12-12~-------------------------------|
B|----------------------------------------------17-17-17-15-15-15-14-14------|
G|---------------------------------------------------------------------------|
D|---------------------------------------------------------------------------|
A|---------------------------------------------------------------------------|
E|---------------------------------------------------------------------------|

e|------------------------------------------/17-----/17----------------------|
B|----------------------------12~--------------------------------------------|
G|-14-14-14-14-14-12-14-12h14------------------------------------------------|
D|----------------------------------14-12~-----------------------------------|
A|---------------------------------------------------------------------------|
E|---------------------------------------------------------------------------|
these are played continuously, i just separated the triplets to clarify where they are played
e|-202020-191919-202020-191919-171717-191919-17171717-15~--17~-17171517171717|
B|---------------------------------------------------------------------------|
G|---------------------------------------------------------------------------|
D|---------------------------------------------------------------------------|
A|---------------------------------------------------------------------------|
E|---------------------------------------------------------------------------|

e|-15-14-15-14-12-14-12-14-12------------------------------------------------|
B|----------------------------15~--15h17-15h17-15-15p14h15p14h15p14----------|
G|---------------------------------------------------------------------------|
D|---------------------------------------------------------------------------|
A|---------------------------------------------------------------------------|
E|---------------------------------------------------------------------------|

e|---------------------------------------------------------------------------|
B|-12-12h14p12---------------------------------------------------------------|
G|-------------14-12-12-12---------------------------------------------------|
D|-------------------------16-16-16-14-14-14~--------------------------------|
A|---------------------------------------------------------------------------|
E|---------------------------------------------------------------------------|
Crazy outro: don't have any clue, there's little random soloing, end on this
e|---------------------------------------------------------------------------------|
B|---------------------------------------------------------------------------------|
G|--99999999999999999999999999999~-------------------------------------------------|
D|--99999999999999999999999999999~-------------------------------------------------|
A|--77777777777777777777777777777~-------------------------------------------| E|--|
ORDER:
Intro
Intro Solo
Verse x3
Lower Verse Riff
Chorus 1st ending
Verse x3
Lower Verse Riff
Chorus Second Ending
Interlude
Solo
Outro

Timing may be off, but if you listen to the song you will be able to catch the rhythm.

YAYS
| /  slide up
| \  slide down
| h  hammer-on
| p  pull-off
| ~  hold note
| +  harmonic
| *  palm mute
| x  mute string
===============================================================================
Tap to rate this tab
 
# A B C D E F G H I J K L M N O P Q R S T U V W X Y Z