Guitaretab - guitar tabs
Song name
# A B C D E F G H I J K L M N O P Q R S T U V W X Y Z

Misc Unsigned Bands - Isaryce - Live To Die tab

Live to Die - by BRYCE FLEMING - Isaryce

|---------------------------------------------------------------------------------------|
|---------------6--------------6--------------------------6--------------6-------5------|
|----------7--------------7----------------5----------7------------7------------------5-|
|----7---------------7---------------5-----------7-------------7------------------------|
|---------------------------------------------------------------------------------------|
|---------------------------------------------------------------------------------------|

|---------------------------------------------------------------------------------------|
|---------------6--------------6--------------------------6--------------6-------5------|
|----------7--------------7----------------5----------7------------7------------------5-|
|----7---------------7---------------5-----------7-------------7------------------------|
|---------------------------------------------------------------------------------------|
|---------------------------------------------------------------------------------------|

|---------------------------------------------------------------------------------------|
|---------------6--------------6--------------------------6--------------6-------5------|
|----------7--------------7----------------5----------7------------7------------------5-|
|----7---------------7---------------5-----------7-------------7------------------------|
|---------------------------------------------------------------------------------------|
|---------------------------------------------------------------------------------------|
I am here, I donít know why though, nothing here I seem to know
|---------------------------------------------------------------------------------------|
|---------------6--------------6--------------------------6--------------6-------5------|
|----------7--------------7----------------5----------7------------7------------------5-|
|----7---------------7---------------5-----------7-------------7----------------------0-|
|---------------------------------------------------------------------------------------|
|---------------------------------------------------------------------------------------|
Open up I want inside now, oh I donít know where to go now
|---------------------------------------------------------------------------------------|
|-----3---5-------3---5---3---1------3---5--------3---5---------------------------------|
|--3-----------3------------------3-----------3------------5----------------------------|
|---------------------------------------------------------------------------------------|
|---------------------------------------------------------------------------------------|
|---------------------------------------------------------------------------------------|

|---------------------------------------------------------------------------------------|
|-----3---5-------3---5---3---1------3---5--------3---5---------------------------------|
|--3-----------3------------------3-----------3------------5----------------------------|
|---------------------------------------------------------------------------------------|
|---------------------------------------------------------------------------------------|
|---------------------------------------------------------------------------------------|

|---------------------------------------------------------------------------------------|
|---------------6--------------6--------------------------6--------------6------------5-|
|----------7--------------7----------------5----------7------------7-------------5------|
|----7---------------7---------------5-----------7-------------7------------------------|
|---------------------------------------------------------------------------------------|
|---------------------------------------------------------------------------------------|
Moving onward, oh so slowly, Someone come save me from this grave
|---------------------------------------------------------------------------------------|
|---------------6--------------6--------------------------6--------------6-------5------|
|----------7--------------7----------------5----------7------------7------------------5-|
|----7---------------7---------------5-----------7-------------7------------------------|
|---------------------------------------------------------------------------------------|
|---------------------------------------------------------------------------------------|
Creeping closer from the shadows, Now I think that it is too late
|---------------------------------------------------------------------------------------|
|---------------6--------------6--------------------------6--------------6------------5-|
|----------7--------------7----------------5----------7------------7-------------5------|
|----7---------------7---------------5-----------7-------------7------------------------|
|---------------------------------------------------------------------------------------|
|---------------------------------------------------------------------------------------|
Life is going round in circles, Life is impossible to tame
|---------------------------------------------------------------------------------------|
|---------------6--------------6--------------------------6--------------6-------5------|
|----------7--------------7----------------5----------7------------7------------------5-|
|----7---------------7---------------5-----------7-------------7------------------------|
|---------------------------------------------------------------------------------------|
|---------------------------------------------------------------------------------------|
Closer now I know the secret,  Livingís Just  an unfair game

|---------------------------------------------------------------------------------------|
|------------5------------------5--------------------5----------------------------------|
|-----4--5-----5--------4--5-----5---------4--5------5-------3-----2-----1--------------|
|---------------------------------------------------------------------------------------|
|---------------------------------------------------------------------------------------|
|---------------------------------------------------------------------------------------|
[ Tab from: http://www.guitaretab.com/m/misc-unsigned-bands/105425.html ]
|---------------------------------------------------------------------------------------|
|------------2------------------2--------------------2----------------------------------|
|-----1--2-----2--------1--2-----2---------1--2------2-------2-----3-----4--------------|
|---------------------------------------------------------------------------------------|
|---------------------------------------------------------------------------------------|
|---------------------------------------------------------------------------------------|

|---------------------------------------------------------------------------------------|
|---------4---------------------4------------------2-----------------2------------------|
|-----4------4---3---------4------4--3-------2-----2--1-------2-----2--1----------------|
|---------------------------------------------------------------------------------------|
|---------------------------------------------------------------------------------------|
|---------------------------------------------------------------------------------------|

|---------------------------------------------------------------------------------------|
|---4------------4---------------2-----------2------------4-----------4-----------2-----|
|-4---4--3----4-----4--3-------2---2--1----2---2--1-----4---4--3----4---4--3----2---2--1|
|---------------------------------------------------------------------------------------|
|---------------------------------------------------------------------------------------|
|---------------------------------------------------------------------------------------|

|-----------------------------------------------------------------------------11--------|
|---2-----------------------------------------------------------------------------------|
|-2---2--1--------------------3---1---0-------------------------------------------------|
|------------2------------2---3---1---0--------------3------0---------------------------|
|----------------2----1---2---------------------0-----------------2--------0------------|
|---------------------1----------------------------------------------------0------------|

|-------1-----------------3--------1--------------3-------------------------------------|
|----3-----5---3-------3--------3-----5---3-------3-------------------------------------|
|-2-----------------3--------2----------------3---3-------------------------------------|
|---------------------------------------------------------------------------------------|
|---------------------------------------------------------------------------------------|
|---------------------------------------------------------------------------------------|

|-------------1--------------------------------3--------------1-------------------------|
|--------3-----------5-------3-----------3---------------3----------5-------3-----------|
|--2------------------------------3-------------------2------------------------------3--|
|---------------------------------------------------------------------------------------|
|---------------------------------------------------------------------------------------|
|---------------------------------------------------------------------------------------|

|---------------------------------------------------------------------------------------|
|---------------6--------------6--------------------------6--------------6-------5------|
|----------7--------------7----------------5----------7------------7------------------5-|
|0---7---------------7---------------5-----------7-------------7------------------------|
|---------------------------------------------------------------------------------------|
|---------------------------------------------------------------------------------------|

|---------------------------------------------------------------------------------------|
|---------------6--------------6--------------------------6--------------6-------5------|
|----------7--------------7----------------5----------7------------7------------------5-|
|---7---------------7---------------5-----------7-------------7-------------------------|
|---------------------------------------------------------------------------------------|
|---------------------------------------------------------------------------------------|

|---------------------------------------------------------------------------------------|
|---------------6--------------6--------------------------6--------------6-------5------|
|----------7--------------7----------------5----------7------------7------------------5-|
|---7---------------7---------------5-----------7-------------7-------------------------|
|---------------------------------------------------------------------------------------|
|---------------------------------------------------------------------------------------|
It is time, my bodyís failing, thereís just no way I can heal
|---------------------------------------------------------------------------------------|
|---------------6--------------6--------------------------6--------------6-------5------|
|----------7--------------7----------------5----------7------------7------------------5-|
|----7---------------7---------------5-----------7-------------7------------------------|
|---------------------------------------------------------------------------------------|
|---------------------------------------------------------------------------------------|
I regret my ever coming, now thereís nothing I can feel
|--------------------------------------------------------------------------------------|
|------3-----5--------3----5--------------------3---5-------------3----5---------------|
|--3--------------3------------7----5-------3----------------3--------------2----------|
|--------------------------------------------------------------------------------------|
|--------------------------------------------------------------------------------------|
|--------------------------------------------------------------------------------------|

|--------------------------------------------------------------------------------------|
|------3-----5--------3----5--------------------3---5-------------3----5---------------|
|--3--------------3------------7----5-------3----------------3--------------2----------|
|--------------------------------------------------------------------------------------|
|--------------------------------------------------------------------------------------|
|--------------------------------------------------------------------------------------|

|--------------------------------------------------------------------------------------|
|----7-----------5------------3---------1-------------0--------------------------------|
|---------7-------------5-----------3----------1------0--------------------------------|
|--------------------------------------------------------------------------------------|
|--------------------------------------------------------------------------------------|
|--------------------------------------------------------------------------------------|
Related for Isaryce - Live To Die tab