Song name
# A B C D E F G H I J K L M N O P Q R S T U V W X Y Z

Misc Unsigned Bands - Wraith - Electrodeath tab

-----------------------------------------------------------------------------
			     Electrodeath - Wraith
-----------------------------------------------------------------------------
Tabbed by:Cjay


Tuning:The best sound for this isif you tune the fith string down to G and then lower it
it sounds "right" with the fourth string. Also it will sound even better if you tune
4th string down by about 1/4 of the machine head turn. If u are not sure contact me on 
profile: Clancy_13

e|--------------------------------------------------------------------------|
B|--------------------------------------------------------------------------|
G|--------------------------------------------------------------------------|
D|---0-5-5-3-3-2222-0----0-5-5-3-3-2222-0-----------------------------------|
A|---0-5-5-3-3-2222-0----0-5-5-3-3-2222-0-----------------------------------|
E|--------------------------------------------------------------------------|

e|--------------------------------------------------------------------------|
B|--------------------------------------------------------------------------|
G|--------------------------------------------------------------------------|
D|---0-5-5-3-3-2222-0----0-5-5-3-3-2222-0-----------------------------------|
A|---0-5-5-3-3-2222-0----0-5-5-3-3-2222-0-----------------------------------|
E|--------------------------------------------------------------------------|

e|--------------------------------------------------------------------------|
B|--------------------------------------------------------------------------|
G|--------------------------------------------------------------------------|
D|---0-5-5-3-3-2222-0----0-5-5-3-3-2222-0-----------------------------------|
A|---0-5-5-3-3-2222-0----0-5-5-3-3-2222-0-----------------------------------|
E|--------------------------------------------------------------------------|

e|--------------------------------------------------------------------------|
B|--------------------------------------------------------------------------|
G|--------------------------------------------------------------------------|
D|---0-5-5-3-3-2222-0----0-5-5-3-3-2222-0-----------------------------------|
A|---0-5-5-3-3-2222-0----0-5-5-3-3-2222-0-----------------------------------|
E|--------------------------------------------------------------------------|

e|--------------------------------------------------------------------------|
B|--------------------------------------------------------------------------|
G|--------------------------------------------------------------------------|
D|---0-5-5-3-3-2222-0----0-5-5-3-3-2222-0-----------------------------------|
A|---0-5-5-3-3-2222-0----0-5-5-3-3-2222-0-----------------------------------|
E|--------------------------------------------------------------------------|

e|--------------------------------------------------------------------------|
B|--------------------------------------------------------------------------|
G|--------------------------------------------------------------------------|
D|---0-5-5-3-3-2222-0----0-5-5-3-3-2222-0-----------------------------------|
A|---0-5-5-3-3-2222-0----0-5-5-3-3-2222-0-----------------------------------|
E|--------------------------------------------------------------------------|

| /  slide up
| \  slide down
| h  hammer-on
| p  pull-off
| ~  vibrato
| +  harmonic
| x  Mute note
=============================================================================
Tap to rate this tab
 
# A B C D E F G H I J K L M N O P Q R S T U V W X Y Z