Song name
# A B C D E F G H I J K L M N O P Q R S T U V W X Y Z

Misc Unsigned Bands - Broken Promise - False Feelings tab

-------------------------------------------------------------------------------
			     false feelings-broken promise
-------------------------------------------------------------------------------
Tabbed by:Jacob fucking Brown
Email:

Tuning:standard
 intro                            strum though the power chords
e|-------------------------------|
B|-------------------------------|
G|-------------------------------|
D|-9-9-9--12-12-x--7-7-7--9------|
A|-9-9-9--12-12-x--7-7-7--9hold--|
E|-7-7-7--10-10-x--5-5-5--7------|
   verse one played through 3 times
e|------------------------------|
B|------------------------------|
G|------------------------------|
D|-9-9-9--12-12-x-7-7-7-9-------|
A|-9-9-9--12-12-x-7-7-7-9-hold--|
E|-7-7-7--10-10-x-5-5-5-7-------|
  chorus
e|-------------------------------|
B|-------------------------------|
G|-------------------------------|
D|-9-9-9-12-12-x-7-7-9---7-7/9x--|
A|-9-9-9-12-12-x-7-7-9---7-7/9x--|
e|-7-7-7-10-10-x-5-5-7---5-5/7x--|
   lead solo thingy
|--------99-------7x--------------------------------------------------------------------|
B|-------99x------7x--------------------------------------------------------------------|
G|-9xxx----x--7xxx----------------------------------------------------------------------|
D|-9xxx----x--7xxx----------------------------------------------------------------------|
A|-7xxx----x--5xxx----------------------------------------------------------------------|
E|--------------------------------------------------------------------------------------|
   verse rythym played through solo



| /  slide up
| \  slide down
| h  hammer-on
| p  pull-off
| ~  vibrato
| +  harmonic
| x  Mute note
Tap to rate this tab
# A B C D E F G H I J K L M N O P Q R S T U V W X Y Z