Song name
# A B C D E F G H I J K L M N O P Q R S T U V W X Y Z

Misc Unsigned Bands - Tragic Harmony - A-minor Flaw tab

this is only the intro because that is all i have come up with so far.

rythm guitar
e|----------------------------------------------------------------|
B|-1-1-0-1-1-1-1-1-1-1-1-1-1-1-1--1-1-0-1-1-1-1-1-1-1-1-1---------|
G|-2-2-2-2-2-0-0-0-0-0-0-0-0-0-0--2-2-2-2-2-0-0-0-0-0-0-0---------|
D|-2-2-2-2-2-2-2-2-2-2-2-2-2-2-2--2-2-2-2-2-2-2-2-2-2-2-2---------|
A|----------------------------------------------------------------|
E|----------------------------------------------------------------|

lead guitar
e|-------0-----------------------0---------------------------------|
B|-----1---1--------1----------1---1---------1---------------------|
G|---2------2-----2---2------2-------2-----2---2-------------------|
D|-2------------2------2---2-------------2------2------------------|
A|------------0------------------------0---------------------------|
E|-----------------------------------------------------------------|
  these two are supposed to be played at the same time. i can only play one guitar at a 
(duh) so i play the rythm part first then the lead.
Tap to rate this tab
# A B C D E F G H I J K L M N O P Q R S T U V W X Y Z