Song name
# A B C D E F G H I J K L M N O P Q R S T U V W X Y Z

Misc Unsigned Bands - Faith For The Fall - The Eyes Of A Beastmaster tab

Faith for the Fall
The Eyes of a Beastmaster

tabbed by: T-rev

Drop B tuning 

Intro

|-----------------------------------------------------------|
|-----------------------------------------------------------|
|-----------------------------------------------------------|
|----8-7----8-7----8----8-7----8-7----7----8-7----8-7----8--|
|--5------5------5----8------8------8----7------7------7----|
|-----------------------------------------------------------|

|-----------------------------------------------------------| x2
|-----------------------------------------------------------|
|-----------------------------------------------------------|
|----8-7-5--------------------------------------------------|
|--5-------8-7-6-5------------------------------------------|
|-----------------------------------------------------------|

The rest of the song coming soon.
any questions of concerns please email:
Skippypop_900@hotmail.com
Tap to rate this tab
# A B C D E F G H I J K L M N O P Q R S T U V W X Y Z