Song name
# A B C D E F G H I J K L M N O P Q R S T U V W X Y Z

Misc Unsigned Bands - Peace On Alice - Second Degree Burns And Goodbyes tab

-------------------------------------------------------------------------------
			     Second Degree Burns And Goodbyes
				     
				     Peace On Alice
-------------------------------------------------------------------------------
Tabbed by: Paul Watson


Tuning: Drop D

e|---------------------------------------------------------------------------|
B|---------------------------------------------------------------------------|
G|-------14-------14------------10------------12-------12--------------------|
D|-------14-------14------------10------------12-------12-------------12-----|
A|-------12-------12------------8-------------10-------10----------10--------|
D|-12-12-12-12-12-12-12-12--8-8-8--8-8--10-10-10-10-10-10-10-10-10-----------|
   x  x     x  x     x  x   x x    x x  x  x     x  x     x  x  x  x  x

e|---------------|-----------------------------------------------------------|
B|---------------|-----------------------------------------------------------|
G|---------------|-------------14---------10-------------12-------12-------12|
D|----------12---|-------------14---------10-------------12-------12-------12|
A|-------10------|-------------12---------8--------------10-------10-------10|
D|-10-10-------10|-12-12-12-12-12-8-8-8-8-8--10-10-10-10-10-10-10-10-10-10-10|
   x  x  x  x  x   x  x  x  x     x x x x    x  x  x  x     x  x     x  x  

e|---------------------------------------------------------------------------|
B|-----------------------7-------------------------7-------------------------|
G|-7-7-7-7-7-7-7-7-7-7-7-7-------------------------7-------------------------|
D|-7-7-7-7-7-7-7-7-7-7-7-7-------------------------7-------------------------|
A|-5-5-5-5-5-5-5-5-5-5-5-5-------------------------5-------------------------|
D|-------------------------000-000-000-000-000-000---000-000-000-000-000-000-|
                           xxx xxx xxx xxx xxx xxx   xxx xxx xxx xxx xxx xxx

e|---------------------------------------------------------------------------|
B|---------------------------------------------------------------------------|
G|-0--8\---------------------------------------------------------------------|
D|-0--8\----------------------[INTRO]----------------------------------------|
A|-0--8\---------------------------------------------------------------------|
D|-0--8\---------------------------------------------------------------------|


e|---------------------------------------------------------------------------|
B|---------------------------------------------------------------------------|
G|-------14-------14------------10-----10----------12-------12---------------|
D|-------14-------14------------10-----10----------12-------12-------------12|
A|-------12-------12------------8------8-----------10-------10----------10---|
D|-12-12-12-12-12-12-12-12--8-8-8--8-8-8-8-8-10-10-10-10-10-10-10-10-10------|
   x  x     x  x     x  x   x x    x x   x x x  x     x  x     x  x  x  x  x

e|---------------------------------------------------------------------------|
B|---------------------------------------------------------------------------|
G|---------------------------------------------------------------------------|
D|----------12-----------------[PREVERSE]------------------------------------|
A|-------10------------------------------------------------------------------|
D|-10-10-------10------------------------------------------------------------|
   x  x  x  x  x

e|--------------------------------[VERSE]------------------------------------|
B|---------------------------------------------------------------------------|
G|-------14-------14-----10-----10-------12-------12-------12-------12---[12]|
D|-------14-------14-----10-----10-------12-------12-------12-------12---[12]|
A|-------12-------12-----8------8--------10-------10-------10-------10---[10]|    
D|-12-12-12-12-12-12-8-8-8--8-8-8--10-10-10-10-10-10-10-10-10-10-10-10---[10]|
   x  x     x  x     x x    x x    x  x     x  x     x  x     x  x

e|---------------------------------------------------------------------------|
B|---------------------------------------------------------------------------|
G|-7-7-7-7-7--3-3-3-3-3------------------------7-7-7-7-7--3-3-3-3-3----------|
D|-7-7-7-7-7--3-3-3-3-3--3-3-3-3-3--8--7--10---7-7-7-7-7--3-3-3-3-3----------|
A|-5-5-5-5-5--1-1-1-1-1--3-3-3-3-3--8--7--10---5-5-5-5-5--1-1-1-1-1----------|
D|-----------------------3-3-3-3-3--8--7--10---------------------------------|


e|---------------------------------------------------------------------------|
B|---------------------------------------------------------------------------|
G|---------------------------------------------------------------------------|
D|-3-3-3-3-3-3-3---5--5-5---------------[CHORUS]-----------------------------|
A|-3-3-3-3-3-3-3---5--5-5----------------------------------------------------|
D|-3-3-3-3-3-3-3---5--5-5----------------------------------------------------|
                      

e|------------------------------[BREAKDOWN]----------------------------------|
B|---------------------------------------------------------------------------|
G|---------------------------------------------------------------------------|
D|-----7---------------------------------7-----------------------------------|
A|---------8---7---8---10---8---7h8----------8---7---7h8-10-8-7--------------|
D|-0-0---0---0---0---0----0---0------0-0---0---0---0------------10-8-7-------|
   x x   x   x   x   x    x   x      x x   x   x   x               

e|---------------------------------------------------------------------------|
B|---------------------------------------------------------------------------|
G|---------------------------------------------------------10--------12------|
D|-----7---------------------------------7------------7\8--10--8\10--12------|
A|---------8---7---8---10---8---7h8----------8---7----7\8--8---8\10--10------|
D|-0-0---0---0---0---0----0---0------0-0---0---0---0--7\8--8---8\10--10------|
   x x   x   x   x   x    x   x      x x   x   x   x



[ORDER]
-intro
-preverse
-verse
-chorus
-preverse
-verse
-chorus
-breakdown
-verse (w/o last note)






| /  slide up
| \  slide down
| h  hammer-on
| p  pull-off
| ~  vibrato
| +  harmonic
| x  Mute note
===============================================================================
Tap to rate this tab
 
# A B C D E F G H I J K L M N O P Q R S T U V W X Y Z