Guitaretab - guitar tabs
Song name
# A B C D E F G H I J K L M N O P Q R S T U V W X Y Z

Misc Unsigned Bands - Second Hand Heroes - Come Back My Girl tab

-------------------------------------------------------------------------------
			     Come back my girl  Second Hand Heroes
-------------------------------------------------------------------------------
Tabbed by: Milner	
Email:milner_123@hotmail.com	

Tuning: standard EADGBe

Intro:

Guitar 2 Milner
e|------------------------------------------------------------------|
B|------------------------------------------------------------------|
G|------------------------------------------------------------------|
D|-----------------------3-3-3-3-\--2-2-2-2-------------------------|
A|--1-1-1-1-/--3-3-3-3--5-5-5-5--\-3-3-3-3--------------------------|
E|-3-3-3-3--/-5-5-5-5-----------------------------------------------|

Guitar 1 shawcross
e|------------------------------------------------------------------|
B|------------------------------------------------------------------|
G|--7-7-7-7-/--9-9-9-9-\--7-7-7-7-\--5-5-5-5------------------------|
D|-5-5-5-5--/-7-7-7-7--\-7-7-7-7--\-5-5-5-5-------------------------|
A|------------------------------------------------------------------|
E|------------------------------------------------------------------|

Bass Palmer
G|------------------------------------------------------------------|
D|------------------------------------------------------------------|
A|-------------------5-5-5-5-\-3-3-3-3------------------------------|
E|-3-3-3-3-/-5-5-5-5------------------------------------------------|

Pre chorus
[ Tab from: http://www.guitaretab.com/m/misc-unsigned-bands/105492.html ]
Guitar 2 Milner
e|------------------------------------------------------------------|
B|------------------------------------------------------------------|
G|------------------------------------------------------------------|
D|----------7-(x8)------------9-(x8)--------------------------------|
A|--7-(x8)--9-(x8)---9-(x8)--11-(x8)--------------------------------|
E|--9-(x8)----------11-(x8)-----------------------------------------|

Guitar 1 Shawcross
e|------------------------------------------------------------------|
B|------------------------------------------------------------------|
G|------------------------------------------------------------------|
D|----------7-(x8)------------9-(x8)--------------------------------|
A|--7-(x8)--9-(x8)---9-(x8)--11-(x8)--------------------------------|
E|--9-(x8)----------11-(x8)-----------------------------------------|

Bass Palmer
e|-------------------------------------------------------------------|
B|-------------------------------------------------------------------|
G|-------------------------------------------------------------------|
D|-------------------------------------------------------------------|
A|---------9-(x4)------------11-(x4)---------------------------------|
E|--9-(x4)----------11-(x4)------------------------------------------|

Chorus

G	C	F	Bb/C



| /  slide up
| \  slide down
| h  hammer-on
| p  pull-off
| ~  vibrato
| +  harmonic
| x  Mute note
===============================================================================


Related for Second Hand Heroes - Come Back My Girl tab