Song name
# A B C D E F G H I J K L M N O P Q R S T U V W X Y Z

Misc Unsigned Bands - 7 Me 7 - Flutura tab

Help us improve GuitareTab! Take a short survey!
Band: 7 me 7 
Song: Flutura
Tabb: Ilir

e|---------------------------------------------------------------------------|
B|--------0-1-------------0-1-------------0-1--------3-----3--1-0-1----------|
G|------2-----2---------0-----0---------0--------------2---------------------|
D|----2---------2-----2---------2-----0--------0---------0-------------------|
A|-0---------------3-----------------------------2---------------------------|
E|---------------------------------3-----------------------------------------|


e|--1----0----0-0-0------1----0----0-0-0-------------------------------------|
B|--1----0----1-3-1------1----0----1-0-1-------------------------------------|
G|--2----1----2-2-2------2----1----2-2-2-------------------------------------|
D|--3----2----2-2-2------3----2----2-2-2-------------------------------------|
A|--3----2----0-0-0------3----2----0-0-0-------------------------------------|
E|-------0--------------------0----------------------------------------------|

e|---------------------------------------------------------------------------|
B|---------------------------------------------------------------------------|
G|---------------------------------------------------------------------------|
D|-7-5---7---------------------------2------4------5-----7-------------------| x3
A|-----8---8-7-8-7-5-7-5---7---------0------2------3-----5-------------------|
E|-----------------------8---8-7-3---0-x-x--2-x-x--3-x-x-5-------------------|

heren e tret mahet oktava
e|---------------------------------------------------------------------------|
B|-10-8-6-8-6---6------------------------------------------------------------|
G|------------9---9-7-9-7-5-7-5---5------5~---7~----9~-----------------------|
D|------------------------------9---7~---------------------------------------|
A|---------------------------------------------------------------------------|
E|---------------------------------------------------------------------------|


e|------------------------------------------------------------------------------------|
B|--------------------3-1-0--------------15b17-15-13---------------17b20-17-15--------|
G|-2-0-2--4b5---2-0-2-------2---14-12-14-------------14---14-12-14-------------17-14--|
D|------------------------------------------------------------------------------------|
A|------------------------------------------------------------------------------------|
E|------------------------------------------------------------------------------------|


---F5 E5 A5 C5----F5 E5 A5 G5/A5
e|---------------------------------------------------------------------------|
B|---------------------------------------------------------------------------|
G|----------------------------------2~---5~---7-5----------------------------|
D|------------------------------------------------7-5-7~---------------------|
A|-3--2--7--10----3--2--7--5/7-----------------------------------------------|
E|-1--0--5--8-----1--0--5--3/5-----------------------------------------------|


F: x33211
E: x022100
Am: x02210
Asus4: x02230
Asus2: x02200

KQYRNI PJEST ME VESH, VEQ NOTAT E TON KONGES I KENI.
N'SOLO NOTAT JON KORREKTE PO KU JON " 2-0-2-0 " NUK I KOM PERSERIT, JON T'SHKRUME VEQ 1HER.
===============================================================================
Related for 7 Me 7 - Flutura tab