Song name
# A B C D E F G H I J K L M N O P Q R S T U V W X Y Z

Misc Unsigned Bands - Agents Of Man - Be My Saviour tab

Tuning: D Standard

d|-----------0---------------0---------------0---------------0---------|
A|-------------0---------------0---------------0---------------0-------|
F|------9----------9-----9---------9-----8---------8-----8---------8---|
C|----9---9------9-----9---9-----9-----9---9-----9-----9---9-----9-----|x2
G|--7----------------7---------------6---------------6-----------------|
D|---------------------------------------------------------------------|

d|-----0~-----------------------------0~-------------------------------|
A|-----0~-----9~--------10~-----------0~----9~----------9~-------------|
F|-----9~----------9~---------8~------9~----------9~-----------8~------|
C|-----9~-----------------------------9~-------------------------------|
G|-7~-----------------------------7~-----------------------------------|
D|-0~-----------------------------0~-----------------------------------|


d|-----0~-----------------------------0~-------------------------------|
A|-----0~-----9~---------9~-----------0~----9~----------9~-------------|
F|-----9~----------9~---------8~------9~----------9~-----------8~------|
C|-----9~-----------------------------9~-------------------------------|
G|-7~-----------------------------7~-----------------------------------|
D|-0~-----------------------------0~-----------------------------------|


d|--------------------------------------0-----0-----0-------0----------|
A|----------10---9---------10---12----------------------------0--------|
F|-----9-------9------9-------9-------9-----9-----9-------9-------9----|
C|--11---11--------11---11----------9-----9-----6-------9-------9------|
G|----------------------------------------------------7----------------|x2
D|---------------------------------------------------------------------|

 
d|-----0~-----------------------------0~-------------------------------|
A|-----0~-----9~---------9~-----------0~----9~----------9~-------------|
F|-----9~----------9~---------8~------9~----------9~-----------8~------|
C|-----9~-----------------------------9~-------------------------------|
G|-7~-----------------------------7~-----------------------------------|
D|-0~-----------------------------0~-----------------------------------|

d|-----0~-----------------------------0~-------------------------------|
A|-----0~-----9~--------10~-----------0~----9~----------9~-------------|
F|-----9~----------9~---------8~------9~----------9~-----------8~------|
C|-----9~-----------------------------9~-------------------------------|
G|-7~-----------------------------7~-----------------------------------|
D|-0~-----------------------------0~-----------------------------------|


d|--------------------------------------0-----0-----0-------0----------|
A|----------10---9---------10---12----------------------------0--------|
F|-----9-------9------9-------9-------9-----9-----9-------9-------9----|
C|--11---11--------11---11----------9-----9-----6-------9-------9------|
G|----------------------------------------------------7----------------|x2
D|---------------------------------------------------------------------|

d|-----------0---------------0---------------0---------------0---------|
A|-------------0---------------0---------------0---------------0-------|
F|------9----------9-----9---------9-----8---------8-----8---------8---|
C|----9---9------9-----9---9-----9-----9---9-----9-----9---9-----9-----|x4
G|--7----------------7---------------6---------------6-----------------|
D|---------------------------------------------------------------------|


d|---0~--|
A|---0~--|
F|---9~--|
C|---9~--|
G|---7~--|
D|-------|
Tap to rate this tab
# A B C D E F G H I J K L M N O P Q R S T U V W X Y Z