Song name
# A B C D E F G H I J K L M N O P Q R S T U V W X Y Z

Misc Unsigned Bands - Dr Rockso - Im Just A Rock N Roll Clown tab

e|--------------------------------|
B|-7-7-8-10-10-8-7--2-2-3-5-5-3-2-|
G|-7-7-7-7--7--7-7--2-2-2-2-2-2-2-|
D|--------------------------------|
A|--------------------------------|
E|--------------------------------|

"ohhhhhhh"
e|-3-3-3-5-3-3-3------------|
B|-3-3-3-3-3-3-3------------|
G|--------------------------|
D|----------------10-9-10-9-|
A|----------------8--7-8--7-|
E|--------------------------|

"Come on girls"
e|------------------|
B|------------------|
G|------------------|
D|-7-7-7-7-[7~----]-|
A|-7-7-7-7----------|
E|-5-5-5-5----------|
           [Whammy]

"Rock all Day"
e|----------------|
B|----------------|
G|-7-7-7-[7~----]-|
D|-7-7-7----------|
A|-5-5-5----------|
E|----------------|
         [Whammy]

"Sniff at night"
e|-----------------|
B|-----------------|
G|-----------------|
D|-7-[divebomb]-7~-|
A|-----------------|
E|-----------------|

"Roll That Money"
e|-------------------------|
B|-------------------------|
G|-5-7-5-7-5-7-5-7-5-7--7~-|
D|-------------------------|
A|-------------------------|
E|-------------------------|

"No more clowning around for you!"
e|-10-10-10-10-12-12-12-12-13-13-13-13-15-15-18-20-|
B|-------------------------------------------------|
G|-------------------------------------------------|
D|-------------------------------------------------|
A|-------------------------------------------------|
E|-------------------------------------------------|

"Got it bad"
e|---------------|
B|---------------|
G|---7b(9)-7-----|
D|-----------7-7-|
A|-5-------------|
E|---------------|
              [Whammy]

"Cant Get Some blow"
e|------------------|
B|------------------|
G|---------------7--|
D|------5----5-7--7-|
A|-5-7h---7h--------|
E|------------------|

"They say it's gonna snow"
e|----------------------------|
B|----------------------------|
G|-7-7-7-7-5-5-5-5-3-3-3-3-2~-|
D|----------------------------|
A|----------------------------|
E|----------------------------|

"Gonna blow white christmas..."
e|------------------------------|
B|------------------------------|
G|-5-7-7-7-5-7-7-7-5-7-7-7-5-7~-|
D|------------------------------|
A|------------------------------|
E|------------------------------|

"I ain't the weather man..."
e|------------------------3-3-5-3-3------|
B|-7-8-10-8-7--2-3-5-3-2--3-3-3-3-3------|
G|-7-7-7--7-7--2-2-2-2-2------------10-9-|
D|----------------------------------10-9-|         
A|----------------------------------8--7-|
E|---------------------------------------|

[Lyrics]

(Intro:) D, A, G, F,E,F,E, A

(Verse)
D5
Rock all Day,
Sniff that line,
Roll that money,
Bb5              C5         
No more clowning around for you!
D5
Got it bad,
Can't get some blow,
They say it's gonna snow,
Bb5                       C5
Gonna blow white christmas up my nose.

(Chorus)
D5
I ain't the weather man,
           A5
Don't know if it's gonna rain,
      G5
Cause I'm a rock 'n roll clown,
                     F5 E5
I do alot of cocaine,
D5                              A5
One of these days they're gonna take me away,
          G5
Cause I'm Doctor Rockso,
                 F5 E5
And I do Cocaine.

Yeah!
What's that Judge?
Why's the nose bleedin'?
Uh you see uh...
I fell down...

[Second half]
G5 C5 G5 C5 G5 C5 Bb5 A5 (x2)


There it is....hope you enjoy it :)
Tap to rate this tab
# A B C D E F G H I J K L M N O P Q R S T U V W X Y Z