Song name
# A B C D E F G H I J K L M N O P Q R S T U V W X Y Z

Misc Unsigned Bands - The Last Shadow Puppets - The Age Of The Understatement tab

Help us improve GuitareTab! Take a short survey!
-------------------------------------------------------------------------------
	THE AGE OF THE UNDERSTATEMENT - The Last Shadow Puppets

               http://www.theageoftheunderstatement.com/  
-------------------------------------------------------------------------------
Tabbed by: Danny Edwards
Email: danny_edwards@hotmail.co.uk

Here's the chords, use the same strumming pattern throughout. Its strummed fast.

INTRO & VERSE

(Decided, To sneak up away from your stomach)

e|-2-222-22-------------|
B|-3-333-33--2-222-22---|
G|-4-444-44--3-333-33---|
D|-4-444-44--4-444-44---| 
A|-2-222-22--4-444-44---| Repeat throughout verse
E|----------------------|

PRE CHORUS

(And she was walking on the tables in the glass house) 

e|---------------------2-222-22--2-222-22--|
B|-5-555-55--3-333-33--3-333-33--3-333-33--|
G|-6-666-66--4-444-44--4-444-44--4-444-44--|
D|-7-777-77--5-555-55--4-444-44--4-444-44--|
A|-7-777-77--5-555-55--2-222-22--2-222-22--|  x3
E|-----------------------------------------|

last time round, play this

(The twenty little tragedies begin)

e|-2-222-22--2-222-22----------------------|
B|-3-333-33--3-333-33--2-222-22--2-222-22--|
G|-2-222-22--2-222-22--3-333-33--3-333-33--|
D|---------------------4-444-44--4-444-44--|
A|---------------------4-444-44--4-444-44--|
E|-----------------------------------------|

CHORUS

(And there's affection to rent
The age of the understatement)

e|-2-222-22---------------------------------------------------------------------|
B|-3-333-33--2-222-22--7-777-77--9-999-99--2-222-22-2-222-22-2-222-22-2-222-22--|
G|-4-444-44--3-333-33--7-777-77--9-999-99--3-333-33-3-333-33-3-333-33-3-333-33--|
D|-4-444-44--4-444-44--7-777-77--9-999-99--4-444-44-4-444-44-4-444-44-4-444-44--|
A|-2-222-22--4-444-44--5-555-55--7-777-77--4-444-44-4-444-44-4-444-44-4-444-44--|
E|------------------------------------------------------------------------------|


BRIDGE

(Ahhhhhhhhhhhhhhhhhh
 And my fingers scratch at my hair)

e|----------------------------------------------------------2-222-22-2-222-22--|
B|--3-333-33-3-333-33--2-222-22--2-222-22-2-222-22-2-222-2--3-333-33-3-333-33--|
G|--4-444-44-4-444-44--3-333-33--3-333-33-3-333-33-3-333-3--4-444-44-4-444-44--|
D|--5-555-55-5-555-55--4-444-44--4-444-44-4-444-44-4-444-4--4-444-44-4-444-44--|
A|--5-555-55-5-555-55--4-444-44--4-444-44-4-444-44-4-444-4--2-222-22-2-222-22--|
E|-----------------------------------------------------------------------------|



| /  slide up
| \  slide down
| h  hammer-on
| p  pull-off
| ~  vibrato
| +  harmonic
| x  Mute note


===============================================================================
Related for The Last Shadow Puppets - The Age Of The Understatement tab