Song name
# A B C D E F G H I J K L M N O P Q R S T U V W X Y Z

Misc Unsigned Bands - Daniel Rock - Chill Out The Devils Voice tab

This is the guitar tab for a song that no one knows made it by Daniel Rock, an unsigned 
that I think that must be recongnized but anyway it's a great song in my opinion...

Intro
|------------------------12|---------------------------------------|
|--------------------------|---------------------------------------|
|--------------------------|---------------------------------------|
|--------------------------|---------------------------------------|
|-5-5-3-5--2-3--5-5-5-3-5--|-5-5-3-5--5-5-3-5--3-3-2-3--4-5-5-3-5--|
|-3-3-1-3--0-1--3-3-3-1-3--|-3-3-1-3--3-3-1-3--1-1-0-1--2-3-3-1-3--| (4x)

Verses
|---------------------|--------------------------------------------|
|---------------------|--------------------------------------------|
|---------------------|--------------------------------------------|
|-----5-3---------5-3-|--------------------------------------------|
|-5-5-3-1-3-4-5-5-3-1-|-55555555555555553333333322222222--2--3-----|
|-3-3-----1-2-3-3-----|-33333333333333331111111100000000--0--1-----|
{_____________________Repeat 4 times__________________________}

Chorus
|------------------------------------------------------------------|
|------------------------------------------------------------------|
|-----4-2---------4-2---------4-2-1--1-2-4-4-4-4-4-4-4-4-----------|
|-4-4-5-3-2-3-4-4-5-3-2-3-4-4-5-3-2--2-3-5-5-5-5-5-5-5-5--1-1-1-1-1|
|-5-5-3-1-3-4-5-5-3-1-3-4-5-5-3-1-0--0-1-3-3-3-3-3-3-3-3--3-3-3-3-3|
|-3-3-----1-2-3-3-----1-2-3-3-----------------------------2-2-2-2-2|

|------------------------------------------------------------------|
|------------------------------------------------------------------|
|------------------------------------------------------------------|
|-1-1-1--4-4-4-4--6-6-6--1-4-6-5-6---------------------------------|
|-3-3-3--5-5-5-5--7-7-7--3-5-7-6-7---------------------------------|
|-2-2-2--3-3-3-3--5-5-5--2-3-5-4-5---------------------------------|

Solo
|-0---0---0---0---2---2---2---2---3---3---3---3---0-0-0-0--0-0-0-0-|
|---0---0---0---0---0---0---0---0---3---3---3---3------------------|
|------------------------------------------------------------------|
|------------------------------------------------------------------|
|------------------------------------------------------------------|
|-0-0-0-0-0-0-0-0-0-0-0-0-0-0-0-0-3-3-3-3-3-3-3-3-0-0-0-0--0-0-0-0-|

|-3202320232023203\141514121415141214151412-10-12-9------9------9--|
|--------------------------------------------------11--11-11--11-11|
|----------------------------------------------------10-----10-----|
|------------------------------------------------------------------|
|------------------------------------------------------------------|
|------------------------------------------------------------------|

|----9------13-11-9-11-9-8-78108------1718171817181718171817181718-|
|--11-11--11--------------------98---------------------------------|
|10-----10------------------------151615-------------------------16|
|------------------------------------------------------------------|
|------------------------------------------------------------------|
|------------------------------------------------------------------|

|---------------------------------------16-1716--1716--1716--1716--|
|-15----15----15----15----15----15----19-------17----17----17----17|
|---16----16----16----16----16----16-------------------------------|
|-----17----17----17----17----17----17-----------------------------|
|------------------------------------------------------------------|
|------------------------------------------------------------------|

|-6-6-5-32323232323232322223232323232323232223232323232323232323232|
|-----------------------30----------------30-----------------------|
|------------------------------------------------------------------|
|------------------------------------------------------------------|
|------------------------------------------------------------------|
|------------------------------------------------------------------|

|-3-3-2-323232323232323222232323232323232322-2-2-2-2-2-2-2-2-0-0-0-|
|--2-0-3----------------30----------------30-0-0-0-0-0-0-0-0-0-----|
|----------------------------------------------------------3-2-----|
|------------------------------------------------------------------|
|------------------------------------------------------------------|
|--------------------------------------------------------------0-0-|

Chorus
|------------------------------------------------------------------|
|------------------------------------------------------------------|
|-----4-2---------4-2---------4-2-1--1-2-4-4-4-4-4-4-4-4-----------|
|-4-4-5-3-2-3-4-4-5-3-2-3-4-4-5-3-2--2-3-5-5-5-5-5-5-5-5--1-1-1-1-1|
|-5-5-3-1-3-4-5-5-3-1-3-4-5-5-3-1-0--0-1-3-3-3-3-3-3-3-3--3-3-3-3-3|
|-3-3-----1-2-3-3-----1-2-3-3-----------------------------2-2-2-2-2|

|------------------------------------------------------------------|
|------------------------------------------------------------------|
|-----------------------------------------4-4-4-1-1-1--------------|
|-1-1-1--4-4-4-4--6-6-6--1-4-6-5-6--4-4-4-5-5-5-3-3-3-1-1-1-1--2-2-|
|-3-3-3--5-5-5-5--7-7-7--3-5-7-6-7--5-5-5-3-3-3-2-2-2-2-2-2-2--3-3-|
|-2-2-2--3-3-3-3--5-5-5--2-3-5-4-5--3-3-3-------------0-0-0-0--1-1-|

|------------------------------------------------------------------|
|------------------------------------------------------------------|
|-----4-2---------4-2---------4-2-1--1-2-4-4-4-4-4-4-4-4-----------|
|-4-4-5-3-2-3-4-4-5-3-2-3-4-4-5-3-2--2-3-5-5-5-5-5-5-5-5--1-1-1-1-1|
|-5-5-3-1-3-4-5-5-3-1-3-4-5-5-3-1-0--0-1-3-3-3-3-3-3-3-3--3-3-3-3-3|
|-3-3-----1-2-3-3-----1-2-3-3-----------------------------2-2-2-2-2|

|------------------------------------------------17-13-------------|
|-----------------------------------------------------17-13--------|
|---------------------------------------------------------16-131213|
|-1-1-1--4-4-4-4--6-6-6--1-4-6-5-6--6-5-6--6-5-6-------------------|
|-3-3-3--5-5-5-5--7-7-7--3-5-7-6-7--7-6-7--7-6-7-------------------|
|-2-2-2--3-3-3-3--5-5-5--2-3-5-4-5--5-4-5--5-4-5-------------------|
Tap to rate this tab
 
# A B C D E F G H I J K L M N O P Q R S T U V W X Y Z