Song name
# A B C D E F G H I J K L M N O P Q R S T U V W X Y Z

Misc Unsigned Bands - Obsessed - 12th Never tab

Guitar legend:|
h=hammer on   |
p=pull off    |
/=slide       |
--------------

INTRO (guitar 1)
|-------------------------------------------|
|-------------------------------------------|
|-------------------------------------------|
|---7p5p0------7p5p0------7p5p0------5h7p5--|
|-3------7---0------7---5------7---1------5-|
|-------------------------------------------|
                                             X4

(guitar 2; comes in on 3rd repeat of guitar 1)
|-------------------------------------------|
|-------------------------------------------|
|-------------------------------------------|
|-5----------2----------7----------3--------|
|-3----------0----------5----------1--------|
|-------------------------------------------|
                                             X2

VERSE (guitar 1)
|-------------------------------------------|
|-------------------------------------------|
|-33333333---22222222---44444444---11111111-|
|-22222222---11111111---00000000---00000000-|
|-33333333---33333333---55555555---22222222-|
|-------------------------------------------|
                                            X4
(guitar 2)
|-------------------------------------------|
|-------------------------------------------|
|-------------------------------------------|
|-xxxxxxxx---xxxxxxxx---xxxxxxxx---xxxxxxxx-|
|-xxxxxxxx---xxxxxxxx---xxxxxxxx---xxxxxxxx-|
|-xxxxxxxx---xxxxxxxx---xxxxxxxx---xxxxxxxx-|
                                            X2
(guitar 2 second half of verse)
|-------------------------------------------|
|-------------------------------------------|
|-------------------------------------------|
|-55555555---22222222---77777777---33333333-|
|-33333333---00000000---55555555---11111111-|
|-------------------------------------------|

CHORUS(guitar 1)
|-11111111---00000000---00000000---11111111-|
|-00000000---11111111---22222222---11111111-|
|-00000000---33333333---11111111---22222222-|
|-00000000---22222222---22222222---11111111-|
|-22222222---33333333---00000000---33333333-|
|-33333333---00000000---00000000---11111111-|
                                             X2
(guitar 2)
|-11111111--------------33333333---11111111-|
|-11111111---11111111---22222222---11111111-|
|-22222222---33333333---33333333---22222222-|
|-11111111---22222222---11111111---11111111-|
|-33333333---33333333---00000000---33333333-|
|-11111111---00000000---00000000---11111111-|
                                             X2

INTRO
VERSEx2
CHORUS
VERSEx2
CHORUSx2
END ON C5

Tap to rate this tab
# A B C D E F G H I J K L M N O P Q R S T U V W X Y Z