Song name
# A B C D E F G H I J K L M N O P Q R S T U V W X Y Z

Misc Unsigned Bands - Raining Fire - Burning Alive tab

Tuning: Standard
h=hammer on
p=pull off
\=slide

|-12-12-12-12----------------9\-2\-|
|------------121112----------9\-2\-|
|------------------123456787-------|
|----------------------------------|
|----------------------------------|
|----------------------------------|
            ==played fast===

|----------9------8----2--5---3--4------------|
|----10-11----9-10---1---7--2---6-------------|   
|---8-------7---------------------------8-----|
|------------------------------------10---9---|
|----------------------------------12-------11|
|---------------------------------------------|


|-2-3-3-3-5-5-6-6-12------11-----15-15-15-15h16p14-------------
|-0-1-1-0-3-0-4-0---12-12-----10-------------------12p11h12----
|---------------------------9----------------------------------
|--------------------------------------------------------------
|--------------------------------------------------------------
|--------------------------------------------------------------
Tap to rate this tab
# A B C D E F G H I J K L M N O P Q R S T U V W X Y Z