Song name
# A B C D E F G H I J K L M N O P Q R S T U V W X Y Z

Misc Unsigned Bands - Cuatro Y Medio - Siempre tab

Help us improve GuitareTab! Take a short survey!
Siempre

Lira 2 En esta parte una lira ase un arpegio
todo se ase con estos tonos A, F#, D, E
E |-------------------------|
A |--0----------------------|
D |-------------------------|
G |----0---0----0---0-------|
B |------0--------0---------|sin distor
e |----------0--------------|
lira 1 y la otra lira ase

B |5-----------------5------|
e |--7547—7/5/4--054---4----| con distor suave

B |5-----5----5---------------|
e |-54754----7--45---7/5/4----|

B |--5-----5-----------5-----|
e |7---4------7547-----------|

lira 2 Después sin distor usan un la agudo q esta por doceavo
 trate
E |----------
A -12--------|
D |-----14---|
G |-----14---|
B |-----14---|sin distor
e |-12-------|

Cuando te conoci crei ke eras especial
pero me di cuenta ke no me di cuenta realmente
ke eras como las demas pero no me importa sabes
EN MI MENTE  SIEMPRE ESTARAS


Lira 1
E |-------------------------|
A |--0----------------------|
D |-------------------------|
G |----0---0----0---0-------| as este arpegio con A Y con
B |------0--------0---------| distor
e |----------0--------------|

    E  y  D con octavas
E |-----------|
A |-7-----5---|
D |-x-----x---|
G |-9-----7---|
B |-----------|
e |-----------|


lira 2
D |7-6-6/7/6-----|
A |-----------7--|

VERSO
A    F#     E     D


siento ke jamas
te podre olvidar
por todos lo momentos
ke me has echo iorar
creo ke jamas te podre borrar
i en mi mente estaras
atormentando nada mas

lira 2
CORO
C#    F#   Bm      E
porke io estaba mucho mejor sin ti
i ahora tendre ke pagar
un amor ke no me dan
porke io estaba mucho mejor sin ti
i amor tengo ke pagar por un amor ke no me dan
lira 1
E |-------------------------|
A |--0----------------------|
D |-------------------------|
G |----0---0----0---0-------| as este arpegio con A Y con
B |------0--------0---------| distor
e |----------0--------------|
intermedio
E |-------------------------|
A |--0----------------------|
D |-------------------------|
G |----0---0----0---0-------| as este arpegio con A Y sin
B |------0--------0---------| distor y dando pausa
e |----------0--------------|
lira 2
CORO
C#    F#   Bm      E

siempre siempre estaras en mi mente i corazon
siempre siempre estaras en mi mente i corazon

    E  y  D con octavas
Lira 1
E |-----------|
A |-7-----5---|
D |-x-----x---|
G |-9-----7---|
B |-----------|
e |-----------|

segundo intermedio
E |-------------------------|
A |--0----------------------|
D |-------------------------|
G |----0---0----0---0-------| as este arpegio con A Y con
B |------0--------0---------| distor
e |----------0--------------|

segundalira
VERSO
A    F#     E     D mutiad0
siento ke jamas
te podre olvidar
por todos los momentos
ke me has echo iorrar

lira 1 armonicos
B |5-----5---------7---5----4--|
e |--54----4---55----5---5------

lira 2
CORO
C#    F#   Bm      E

kreo ke jamas te podre borrar
i en mi mente estaras
atormentando nadamas

lira 2
CORO
C#    F#   Bm      E

lira 1
B |5-----5---------7---5----4--|
e |--54----4---55----5---5------

porke io estaba mucho mejor sin ti
i ahora tengo ke pagar por un amor ke no
porke io estaba mucho sin ti i ahora tengo ke pagar
un amor ke no me dan


B |---------------5-----5-------|
e |-7/5/4-----5------4------4---|
no me dan
nome dan

lira 2
CORO
C#    F#   Bm      E

Lira 1
  E  y  D con octavas
E |-----------|
A |-7-----5---|
D |-x-----x---|
G |-9-----7---|
B |-----------|
e |-----------|
siempre siempre siempre estaras en mi mente i corazon
siempre estaras en mi mente i corazon
Cuatro y Medio
Related for Cuatro Y Medio - Siempre tab