Song name
# A B C D E F G H I J K L M N O P Q R S T U V W X Y Z

Misc Unsigned Bands - Wildstreak - What A Drag tab

What a Drag
BY: Crash
band: Wildstreak

INTRO

e---------|------------------------|
b---------|------------------------|
g---------|------------------------|
d---------|-2--2-4--4-2--2-4---2---|
a-x-x-----|-0--0-0--0-0--0-0-3-0---|
E-----12\-|------------------------|
          <----------4x------------|

VERSE

e----------------------|
b----------------------|
g-2--2-4--4-2--2-4---2-|
d-0--0-0--0-0--0-0-3-0-|
a----------------------|
E----------------------|

e----------------------|
b----------------------|
g----------------------|
d-2--2-4--4-2--2-4---2-|
a-0--0-0--0-0--0-0-3-0-|
E----------------------|

e----------------------|
b----------------------|
g----------------------|
d----------------------|
a-2--2-4--4-2--2-4---2-|
E-0--0-0--0-0--0-0-3-0-|

e----------------------|
b----------------------|
g----------------------|2x
d-2--2-4--4-2--2-4---2-|
a-0--0-0--0-0--0-0-3-0-|
E----------------------|

CHORUS

Both gtr.
e------------------------------------------------|
b--------------------3--3------------------------|
g--------------------0--2------------------------|
d-----0-----0-2---2--0--0-2--2-4--4-2--2-4---2---|
a---0-----0---2---2--x----0--0-0--0-0--0-0-3-0---|
E-3-----2-----0---0--3---------------------------|
                         <----------2x-----------|

|---2-----------3-3---2-|-----------------3-3---2--------------------------|
|---3-----------3-3---3-|-----------------3-3---3--------------------------|
|-----2-----2---0-0---2-|----------2------0-0---2--------------------------|
|-0---------2---0-0---0-|---2------2------0-0---0---2--2-4--4-2--2-4---2---|
|-------3h4-----x-x-----|--------x-0------x-x-------0--0-0--0-0--0-0-3-0---|
|-------------2-3-3-3---|-3---3--x------2-3-3-3----------------------------|
                                                   <----------2x-----------|

VERSE

e----------------------|
b----------------------|
g----------------------|2x
d-2--2-4--4-2--2-4---2-|
a-0--0-0--0-0--0-0-3-0-|
E----------------------|

e----------------------|
b----------------------|
g-2--2-4--4-2--2-4---2-|2x
d-0--0-0--0-0--0-0-3-0-|
a----------------------|
E----------------------|

e----------------------|
b----------------------|
g----------------------|2x
d-2--2-4--4-2--2-4---2-|
a-0--0-0--0-0--0-0-3-0-|
E----------------------|

e----------------------|
b----------------------|
g----------------------|2x
d----------------------|
a-2--2-4--4-2--2-4---2-|
E-0--0-0--0-0--0-0-3-0-|

e----------------------|
b----------------------|
g----------------------|2x
d-2--2-4--4-2--2-4---2-|
a-0--0-0--0-0--0-0-3-0-|
E----------------------|

CHORUS

Both gtr.
e------------------------------------------------|
b--------------------3--3------------------------|
g--------------------0--2------------------------|
d-----0-----0-2---2--0--0-2--2-4--4-2--2-4---2---|
a---0-----0---2---2--x----0--0-0--0-0--0-0-3-0---|
E-3-----2-----0---0--3---------------------------|
                         <----------2x-----------|

|---2-----------3-3---2-|-----------------3-3---2--------------------------|
|---3-----------3-3---3-|-----------------3-3---3--------------------------|
|-----2-----2---0-0---2-|----------2------0-0---2--------------------------|
|-0---------2---0-0---0-|---2------2------0-0---0---2--2-4--4-2--2-4---2---|
|-------3h4-----x-x-----|--------x-0------x-x-------0--0-0--0-0--0-0-3-0---|
|-------------2-3-3-3---|-3---3--x------2-3-3-3----------------------------|
                                                   <----------4x-----------|

SOLO

e---------------------------------------------------------------------------|
b------------------------------8b10-pb10~~---------------9b10-9~-7--------7-|
g-/7~~~~~~~~~~~-/7~~~~~~~~~~~~-------------7-10p7---7~-9-9b10-9~-7-9b10---7-|
d-------------------------------------------------9---------------------9---|
a---------------------------------------------------------------------------|
E---------------------------------------------------------------------------|

---------------------------------------------------------------------------|
-----------------------15b17==pr16~~~-15b17r-------------------------------|
-----------7b9-7-5-7~~-----------------------16-14-16~~~-------------------|
-7-9-7---------------------------------------------------------------5-7-5-|
-------5-7----------------------------------------------------7---7~-------|
---------------------------------------------------------5~~~---5----------|

-------------------------------------------------------------------------|
--------------8-8----------------------------------13b15r-------17-20b21-|
----------7b9---7b9-------------7-9-9-/11-11~~~-12--------14-12----------|
-7---7~~~-----------7-5-7~~---9------------------------------------------|
---5---------------------------------------------------------------------|
-------------------------------------------------------------------------|

---------------------------------|
-pb21-pb21-17-20b22~~~-----------|
---------------------------------|
-----------------------x<~~~~~~~-|
-----------------------x<~~~~~~~-|
---------------------------------|

VERSE

e----------------------|
b----------------------|
g----------------------|4x (2x)
d-2--2-4--4-2--2-4---2-|
a-0--0-0--0-0--0-0-3-0-|
E----------------------|

e----------------------|
b----------------------|
g-2--2-4--4-2--2-4---2-|2x
d-0--0-0--0-0--0-0-3-0-|
a----------------------|
E----------------------|
                            (all together are repeat 2x)
e----------------------|  [first staff do it 2x on the 2nd time]
b----------------------|
g----------------------|2x
d-2--2-4--4-2--2-4---2-|
a-0--0-0--0-0--0-0-3-0-|
E----------------------|

e----------------------|
b----------------------|
g----------------------|2x
d----------------------|
a-2--2-4--4-2--2-4---2-|
E-0--0-0--0-0--0-0-3-0-|

e----------------------|
b----------------------|
g----------------------|2x
d-2--2-4--4-2--2-4---2-|
a-0--0-0--0-0--0-0-3-0-|
E----------------------|

OUTRO

e--------------------------------------------------------------------------|
b-----------------------------------15b17----------------------------------|
g-9-9-9-9-9-9-9-9-9-9-9-9-7-7-7-7-7-------17-14----------------------------|
d-9-9-9-9-9-9-9-9-9-9-9-9-7-7-7-7-7-------------14-16~~~~~~~~~~~~-x<~~~~~~-|
a-7-7-7-7-7-7-7-7-7-7-7-7-5-5-5-5-5-------------------------------x<~~~~~~-|
E--------------------------------------------------------------------------|

---|
---|
-2-|
-2-|
-0-|
---|
Tap to rate this tab
# A B C D E F G H I J K L M N O P Q R S T U V W X Y Z