Song name
# A B C D E F G H I J K L M N O P Q R S T U V W X Y Z

Misc Unsigned Bands - Dimrain47 - Operation Evolution tab

Help us improve GuitareTab! Take a short survey!
Operation Evolution 

by Dimrain47

Finally got around to writing the guitar tab that everyone's been asking 
for. This is EXACT. I tried to tab this in a way that reduces awkward 
fingerings and string changes, but in a few parts it's unavoidable.

***Remember, notes enclosed in () depict the harmony parts.***

/  Slide Up
\  Slide down
() Harmony
h  Hammer On
p  Pull Off
b  Bend
r  Release
~  Vibrato
.  Staccato (short, 1/2 note value)
+  Add half note value

Good luck! = )

-Dimrain47
superbane2@yahoo.com
www.myspace.com/dimrain47
www.dimrain47.newgrounds.com


========================================================================


--First Solo--


    (0:52)
    q   q    e  e  e  e      e  e  q     e  e  e  e    
E|------------------------|---------------------------|
B|------------------------|--------------15----18-----|
G|------3/---15----15h17--|-----------------15----15--|
D|--------------15--------|--19b20b19---(15)--(13)----|
A|------------------------|----------------(13)--(13)-|
E|------------------------|---------------------------|


    (0:55)
    q.   q    e  e  e  e     s  s  q    e  e  e  s  s  e      
E|------------------------|----------------------17b18b17--|
B|--15--------------------|----------------15--------------|
G|-------3/---15----15h17-|--14b15b14---15----15-----------|
D|-(12)----------15-------|--------------------------------|
A|------------------------|--------------------------------|
E|------------------------|--------------------------------|


    (0:58)
    q    q    q    e  e      e  e  e  q    e  e  e
E|--18--------------------|--------------------------|
B|-------18---16---15-----|--15-16-15----------------|
G|--------------------15--|-----------15-------------|
D|------------------------|----------------15-19h20--|
A|------------------------|--------------------------|
E|------------------------|--------------------------|


    (1:01)
    e  e  e  e  e  e  e  e      q    q    q+    s  s     
E|---------------------------|------------17b18-18p17--|
B|---------------------------|-------------------------|
G|--------------15h17----17h-|--20---19----------------|
D|--15-19h20-15-------15-----|-------------------------|
A|---------------------------|-------------------------|
E|---------------------------|-------------------------|


    (1:04)
    e  s  s  e  s  s  e  s  s  e  s  s
E|--18----------------------------18p17--|
B|-----18p15-18--------------------------|
G|--------------19p15-19-----------------|
D|-----------------------20p19-20--------|
A|---------------------------------------|
E|---------------------------------------|


    (1:05)                  (e. e.)
    e  s  s  e  s  s  e. e.  e  s  s
E|--18--------------------------18p17--|
B|-----18p15-18----------18-(15-18)----|
G|--------------19p15-19-----15--------|
D|-------------------------------------|
A|-------------------------------------|
E|-------------------------------------|


    (1:07)
    e  s  s  e  s  s  e  s  s  e  s  s
E|--18----------------------------18p17--|
B|-----18p15-18--------------------------|
G|--------------19p15-19-----------------|
D|-----------------------20p19-20--------|
A|---------------------------------------|
E|---------------------------------------|


    (1:08)		    (e. e.)
    e  s  s  e  s  s  e. e.  q
E|--18-------------------------------|
B|-----18p15-18----------18-(15-18)--|
G|--------------19p15-19-----15------|
D|-----------------------------------|
A|-----------------------------------|
E|-----------------------------------|


    (1:10)
    e. e. e. e. e. e. e. e.      e. e. e. e. e. e. e. e. 
E|--18----18----18----18------|--20----20----18----20------|
B|-----16----16----15----15---|----------------------------|
G|----------------------------|-----17----17----15----17---|
D|----------------------------|----------------------------|
A|----------------------------|----------------------------|
E|----------------------------|----------------------------|


    (1:13)
    e. e. e. e. e  e  e  e       q    q    e  e  w <----Pluck the 18th 
E|--20----20----20----20-22---|--23---22---20-22-18---| fret and wammy-
B|-----18----18----18---------|-----------------------| bar the pitch
G|----------------------------|-----------------------| down a half-
D|----------------------------|-----------------------| step. 
A|----------------------------|-----------------------| 
E|----------------------------|-----------------------|




========================================================================


--Small interlude section with piano--


    (1:42)
    w+                   h        h             wx2
E|--------------------|---------------------|-------------------------|
B|--------------------|---------------------|-------------------------|
G|--15----------------|----------/17--------|--/19--------------------|
D|--------------------|---------------------|-------------------------|
A|--------------------|---------------------|-------------------------|
E|--------------------|---------------------|-------------------------|


    (1:47)
    w                    h+e       e   e   w
E|--------------------|------------------------|
B|--------------------|------------------------|
G|--19----------------|--17-------/19-\17-\15--|
D|--------------------|------------------------|
A|--------------------|------------------------|
E|--------------------|------------------------|


========================================================================


--Intro to Second Melody--


    (3:13)
    e. e. e. e. e. e. e. e.     e. e. e. e. e. e. e. e. 
E|-----15-17----15-17-18-20--|-----15-17----15-17-18-20--|
B|--15-------15--------------|--15-------15--------------|
G|---------------------------|---------------------------|
D|---------------------------|---------------------------|
A|---------------------------|---------------------------|
E|---------------------------|---------------------------|


    (3:16)
    e. e. e. e. e. e. e. e.     e. e. e. e. e. e. e. e.
E|--------18-------18----20--|--22-20-18----20-18----18--|
B|--18-22----18-22----18-----|-----------18-------22-----|
G|---------------------------|---------------------------|
D|---------------------------|---------------------------|
A|---------------------------|---------------------------|
E|---------------------------|---------------------------|


    (3:19)
    e. e. e  e. e. e. q        e   e. e  e  e. e. e  e
E|--18-18-13/18-17-18-13----|------18-13-18p17-18-13-----|
B|--------------------------|------------------------11--|
G|--------------------------|----------------------------|
D|--------------------------|----------------------------|
A|--------------------------|----------------------------|
E|--------------------------|----------------------------|


    (3:22)
    e  e. e  e. e. e. e  e      e. e. e  e  e. e.    e  e      w
E|-----17----17--------------|--------------------23b25b23--|--22--|
B|--13----13----13-15-16p15--|--13-15-13p11-22-23-----------|------|
G|---------------------------|------------------------------|------|
D|---------------------------|------------------------------|------|
A|---------------------------|------------------------------|------|
E|---------------------------|------------------------------|------|


========================================================================


--Second Melody--

							    ____
    (3:29)						        |
    q.   q.   q.   q.        e  e. q.   e. e. e  e        	|
E|------------------------|-------------------------|	        |
B|------------------------|-------------------------|	        |
G|------------------------|-------------------------|		|
D|--12---12---12---12-----|--12h15-12---12-10-12p8--|		|
A|------------------------|-------------------------|		|
E|------------------------|-------------------------|		|
								|
								|
    (3:32)							|
    q.   q.   q.   q.        e. e. e  e. e  e  q		|
E|------------------------|---------------------------|		|
B|------------------------|--------------10-11--------|		|
G|------------------------|--------------------12-----|		|
D|--12---12---12---12-----|--10-12-10h12--------------|		|
A|------------------------|---------------------------|		|
E|------------------------|---------------------------|		|
								|
								| x2
    (3:35)							|
    q.   q.   q.   q.        e  e. q.   e. e. e  e 		|
E|------------------------|-------------------------|		|
B|------------------------|-------------15----15-17-|		|
G|------------------------|----------------15-------|		|
D|--12---12---12---12-----|--12h15-12---------------|		|
A|------------------------|-------------------------|		|
E|------------------------|-------------------------|		|
								|
								|
    (3:38)							|
    q.   q.   q.   e  e      e. e. q    e. e. q			|
E|------------------------|---------------------------|		|
B|------------------------|---------------------------|		|
G|--19---19---19---17-19--|--17-15-14---15-14-12------|		|
D|------------------------|---------------------------|		|
A|------------------------|---------------------------|		|
E|------------------------|---------------------------|		|
							    ____|


========================================================================


--Second Solo--


    (3:52)
    h       e  q     q     
E|----------15h17----18-----|
B|--------------------------|
G|--------------------------|
D|--------------------------|
A|--------------------------|
E|--15----------------------|


    (3:54)
    e  s  s  s  s  s  s  s  s  s  s  s  s  s  s
E|-----------------------------------------17h18--|
B|-----18p15-16p15-------------------15h16--------|
G|-----------------15\12----12h14h15--------------|
D|-----------------------12-----------------------|
A|------------------------------------------------|
E|------------------------------------------------|


    (3:55)  
    s  s  s  s  s  s  s  s  s  s  s  s  s  s  s  s
E|--17----15h18-17----15h18p17----15h18-22h23-18p17--|
B|-----15----------15----------15--------------------|
G|---------------------------------------------------|
D|---------------------------------------------------|
A|---------------------------------------------------|
E|---------------------------------------------------|


    (3:57)                        ___3___  <---Sixteenth triplets,
    s  s  s  s  s  s  s  s  s  s [s  s  s] q		sweep-pick
E|--------------15h17-18p15-------------17-20-----|     these.
B|--20p15-20p15-------------18-------18-----------|
G|-----------------------------15-14--------------|
D|------------------------------------------------|
A|------------------------------------------------|
E|------------------------------------------------|


    (3:58) **Note: If your fingers aren't long enough to play the 20p11,
    s  s  s  s  s  s  s  s  s  s  s  s  s  s  s  s	you can play
E|---------------------------------------------------|	(3:58)b instead.
B|--20p11-18p11-16p11-15p11--------------------------|  It's slightly 
G|--------------------------12----12h15p14----14h17--|	modified, but
D|-----------------------------12----------12--------| |much easier.   |
A|---------------------------------------------------| |_______________|
E|---------------------------------------------------|         |
							       |
                _______________________________________________|
    (3:58)b <--|
    s  s  s  s  s  s  s  s  s  s  s  s  s  s  s  s
E|---------------------------------------------------|
B|--20p15-18p15-16p15--------------------------------|
G|--------------------17p15-12----12h15p14----14h17--|
D|-----------------------------12----------12--------|
A|---------------------------------------------------|
E|---------------------------------------------------|


    (4:00)
    s  s  s  s  s  s  s  s  s  s  s  s  s  s  s  s
E|---------------------------------------------------|
B|---------------------------------------------------|
G|--20p12-19p12-17p10-15p10----------------------12--|
D|--------------------------------12p10-12h15-12-----|
A|--------------------------10h13--------------------|
E|---------------------------------------------------|


    (4:01)
    s  s  s  s  s  s  s  s  s  s  s  s  s  s  s  s
E|---------------------------------------------------|
B|---------------------------------------------------|
G|--14-------12h14-12h14h15-17----------17h19--------|
D|--------12----------------------15h19-------17h20--|
A|-----12----------------------15--------------------|
E|---------------------------------------------------|


    (4:03)
    ___3___  ___3___  ___3___  ___3___  ___3___  ___3___
   [s  s  s][s  s  s][s  s  s][s  s  s][s  s  s][s  s  s] q
E|--------------------------------17h20-------------17h20-22b23--|
B|-----------------------------18----------------18--------------|
G|-----------------17-------17----------17h19h20-----------------|
D|-----------15h19----15h19--------------------------------------|
A|--------15-----------------------------------------------------|
E|--13h17--------------------------------------------------------|


    (4:04)
    W+               h       q    q         w
E|--22------------|----------------------|----------------|
B|----------------|----------16---15-----|----------------|
G|----------------|----------------------|--15------------|
D|----------------|----------------------|----------------|
A|----------------|----------------------|----------------|
E|----------------|----------------------|----------------|


    (4:09)
    h       q    q         wx2
E|----------------------|----------------|
B|----------------------|----------------|
G|--17------15---14-----|--12------------|
D|----------------------|----------------|
A|----------------------|----------------|
E|----------------------|----------------|


========================================================================


--Third Solo--


    (4:16)
    e   s. s. e   s  s  e   s. s. q
E|---------------------------------------|
B|---------------------------------------|
G|--17-----14h17--16p14-17-----16--------|
D|------14------------------14----14-----|
A|---------------------------------------|
E|---------------------------------------|


    (4:17)
    s. s. s  s. e   s. s. s  s. s  s.   q
E|---------------------------------------------|
B|---------------------------------------------|
G|---------------------------------------------|
D|--19-19-14h19-14--17-19-17h19-17p14-6/14-----|
A|---------------------------------------------|
E|---------------------------------------------|


    (4:19)
    e   s. s. e   s. s. s  s  s  s. e   e.
E|--------------------------------------17----|
B|----------------------------------17--------|
G|-------------------------------16-----------|
D|--15--14-12-14--12-10-12h14p12--------------|
A|--------------------------------------------|
E|--------------------------------------------|


    (4:20)
    e   e.  e   e.  s  s. s  s. e   e.
E|------17------17--19h20-19p17-19-------|
B|--17------17----------------------17---|
G|---------------------------------------|
D|---------------------------------------|
A|---------------------------------------|
E|---------------------------------------|


    (4:22)
    e   s. s. e   s. s. s  s. s  s. s  s. e
E|--------------------------------------------|
B|--------------------------------------------|
G|----------------------------------12p19-----|
D|--15--14-12-14--12-10-10h12-10p9--------10--|
A|--------------------------------------------|
E|--------------------------------------------|


    (4:23)
    s  s. e  s  s. e   s  s. e   s  s. e
E|-----------15p12-------------------------|
B|-----------------13----------------------|
G|---------------------12p9----------------|
D|---------------------------10--10h12-10--|
A|--10p7-----------------------------------|
E|--------8--------------------------------|


    (4:24)				   **Here you need to use your
    s s s  s s s  s s s  s s s  s s s  s	right middle finger to
E|--0h3h12-0h3h12-0h3h13-0h3h12-0h3h10p8--|	tap the top notes and to
B|----------------------------------------|	give the string another
G|----------------------------------------|	pluck for the next 0
D|----------------------------------------|	fret note. Also, you 
A|----------------------------------------|	should use your left
E|----------------------------------------|	middle to hit the 8 fret
						note at the end, so that
						you have the right
						positioning for the next
						measure.



    e   e. s  s. s s.  e.  e. s s s  s     wx2
E|--10-----10p8--7h8------/7--8p7-------|----------------|
B|------7-------------/7----------10p8--|--10------------|
G|--------------------------------------|----------------|
D|--------------------------------------|----------------|
A|--------------------------------------|----------------|
E|--------------------------------------|----------------|


========================================================================


--Second Interlude--


    (4:39)
    w-e         e      e  h+          e      w-e           e
E|------------------|---------------------|--------------------|
B|------------------|-----------------16--|--18~-----------19--|
G|--\15---------17--|--17h18~-------------|--------------------|
D|------------------|---------------------|--------------------|
A|------------------|---------------------|--------------------|
E|------------------|---------------------|--------------------|


    (4:43)
    q  q     q  q      h+          q      q+  q+  q
E|------------------|-------------/18--|--16----------|
B|--18p16-----------|------------------|------19--18--|
G|--------17b18b17--|--15~-------------|--------------|
D|------------------|------------------|--------------|
A|------------------|------------------|--------------|
E|------------------|------------------|--------------|


    (4:48)
    q+     q+  q      q+  q+  q      q    h+
E|-----------------|--20--21--20--|--18----------|
B|------15/21--19--|--------------|--------------|
G|--15-------------|--------------|--------------|
D|-----------------|--------------|--------------|
A|-----------------|--------------|--------------|
E|-----------------|--------------|--------------|


    (4:56)   
    q   w
E|--12/|18\---------|      EEEEE  N    N  DDDD
B|-----|------------|      E      NN   N  D   D
G|-----|------------|      EEE    N N  N  D    D   
D|-----|------------|      E      N  N N  D    D
A|-----|------------|      E      N   NN  D   D
E|-----|------------|      EEEEE  N    N  DDDD

Related for Dimrain47 - Operation Evolution tab