Song name
# A B C D E F G H I J K L M N O P Q R S T U V W X Y Z

Misc Unsigned Bands - Aghast Northeast Tn - Lord Kromdar The Invensable tab

Help us improve GuitareTab! Take a short survey!
Aghast (north-east tennessee)
Chaotic Underworld records

Lord Kramdar, the invencable
intro

I will finish the rest soon. I promise. - Adam Aghast

Start riff with up stroke.

|-----------------------------------------------|
|-----------------------------------------------|
|-----------------------------------------------|
|-3-3\4--4-4\5--3-3\4--4-4\5--2-2--3-3\4--4-4\5-|
|--------3-3\4---------3-3\4--2-2---------3-3\4-|
|-1-1\2--2-2\3--1-1\2--2-2\3--0-0--1-1\2--2-2\3-|

|---------------------------------|
|---------------------------------|
|---------------------------------|
|-3-3\4--4-4\5--3-3\4---2---------|
|--------3-3\4----------2---------|
|-1-1\2--2-2\3--1-1\2---0---------|
Related for Aghast Northeast Tn - Lord Kromdar The Invensable tab