Song name
# A B C D E F G H I J K L M N O P Q R S T U V W X Y Z

Misc Unsigned Bands - Taiyou No Uta - From Sunset To Sunrise tab

From Sunset to Sunrise, from the Taiyou no Uta (drama) original soundtrack.

This is just the main melody, but I might get to the entire composition at some point.

And I have to mention that this is my first tab, too, so be nice :D
  
E||---------12----14--------12-----|--14------------16--17----|
B||--14-----------------14---------|------------19------------|
G||--------------------------------|--------------------------|
D||--------------------------------|--------------------------|
A||--(0)--------------------(0)----|--------------------------|
E||--------------------------------|--------------------------|
   
--16--14----12----------------------|-------------------12----14----|
------------------14----17----13----|--14--------14-----------------|
------------------------------------|-------------------------------|
------------------------------------|-------------------------------|
------------------------------------|------------(0)----------------|
------------------------------------|-------------------------------|
     
------12-----14------------|------16--17--------19----------------|
--14-----------------------|--19------------------------19--------|
---------------------------|--------------------------------------|
---------------------------|--------------------------------------|
------(0)------------------|--------------------------------------|
---------------------------|--------------------------------------|

------------------------||
--17----14----19--------||
------------------------||
------------------------||
------------------------||
------------------------||
Tap to rate this tab
 
# A B C D E F G H I J K L M N O P Q R S T U V W X Y Z