Song name
# A B C D E F G H I J K L M N O P Q R S T U V W X Y Z

Misc Unsigned Bands - Even Bratrud - Face In The Window tab

This is the first solo on my own song "Face in the Window". Its very easy.

~=Vibrato

E||-----------0-------------------------5-4-------|
B||----0--------------0---------6------------3----|
G||--------------------------7-----5--------------|
D||-----------------------------------------------|
A||-----------------------------------------------|
E||-0-----0-------0------0------------------------|


E||----0------------------------------------------|
B||-------0---------------------------------------|
G||-4---------5-----------------------------------|
D||---------------5-7------9-----9-8-7------------|
A||--------------------8-9---8-9--------8-10------|
E||-----------------------------------------------|

E||-----------------------------------------------|
B||-----------------------------------------------|
G||-----------------------------------------------|
D||-8-9--12---------12~---------------------------|
A||-----------------------------------------------|
E||------------12---------------------------------|
Tap to rate this tab
# A B C D E F G H I J K L M N O P Q R S T U V W X Y Z