Song name
# A B C D E F G H I J K L M N O P Q R S T U V W X Y Z

Misc Unsigned Bands - Dallas Dumas - Tribal Killings tab

eb------------------------------------------------|
Bb------------------------------------------------|
Gb------------------------------------------------|
Db-------------0----------------------0-6-------4-|
Ab-0-1-2-0-6s5-0-6-5-4-5-0-12-6-5-4-5-0-6-5-5-5-4-|
Db-0-1-2-0-6s5-0-6-5-4-5-0-12-6-5-4-5-0-6-5-5-5-4-|
   . . . .       . . . .      . . . .     . . .
eb-------------------------------------------------------------------------|
Bb-------------------------------------------------------------------------|
Gb---------------------------------------------------7-----5-----4---------|
Db---------0---------0--2-------------4--------------x-----x-----x-------0-|
Ab-7-5-4-5-0-7-5-4-5-0--2-------------4--------------5-5-5-3-3-3-2-------0-|
Db-7-5-4-5-0-7-5-4-5-0--2-2-222-222-224-4-444-444-44---------------3-2-1-0-|
   . . . .   . . . .      . ... ... ..  . ... ... ..   . .   . .   . . .

eb-x---------------------------------|
Bb-8---------------------------------|
Gb-7---------------------------------|
Db-x-7-7-5-7-0-7-7-5-7-0---------7-5-|
Ab-5-5-0-5-7-0-5-0-5-7-0---9---8-7-5-|
Db-0-0-0-5-7-0-0-0-5-7-0-0-9-0-8-7-5-|
Tap to rate this tab
# A B C D E F G H I J K L M N O P Q R S T U V W X Y Z