Song name
# A B C D E F G H I J K L M N O P Q R S T U V W X Y Z

Misc Unsigned Bands - Girl Friday - Gone tab

for more Girl Friday songs, go to myspace.com/girlfridaymusic
h=hammer on
x=mute

intro/verse riff
e-------0----------------------------|
b---------0--------------------------|
g-----------------9------9-----------| play 12 times
d------------------9------9----------|
a--0h7-------------------------------|
e------------0h7----7h9--------------|

bridge
e--0---0------0---0------0---0-----0---0-----0--0-----0--0-|
b--0---0------0---0------0---0-----0---0-----0--0-----0--0-|
g--11--11-----11--11-----9---9-----9---9-----8--8-----8--8-|
d--12--12-----12--12-----10--10----10--10----9--9-----9--9-|
a--12--12-----12--12-----10--10----10--10----9--9-----9--9-|
e--10--10-----10--10-----8---8-----8---8-----7--7-----7--7-|


verse riff
e-------0----------------------------|
b---------0--------------------------|
g-----------------9------9-----------| play 12 times
d------------------9------9----------|
a--0h7-------------------------------|
e------------0h7----7h9--------------|


bridge
e--0---0------0---0------0---0-----0---0-----0--0-----0--0-|
b--0---0------0---0------0---0-----0---0-----0--0-----0--0-|
g--11--11-----11--11-----9---9-----9---9-----8--8-----8--8-|
d--12--12-----12--12-----10--10----10--10----9--9-----9--9-|
a--12--12-----12--12-----10--10----10--10----9--9-----9--9-|
e--10--10-----10--10-----8---8-----8---8-----7--7-----7--7-|


chorus "when I'm gone..."
e------------------------------|
b--8--8----------6--6--------6-|
g--9--9---8--8---7--7---6--6-7-|
d--9--9---9--9---7--7---7--7-7-|    play 3 times
a--7--7---6--6---5--5---4--4-5-|
e------------------------------|

verse riff
e-------0----------------------------|
b---------0--------------------------|
g-----------------9------9-----------| play 12 times
d------------------9------9----------|
a--0h7-------------------------------|
e------------0h7----7h9--------------|

bridge
e--0---0------0---0------0---0-----0---0-----0--0-----0--0-|
b--0---0------0---0------0---0-----0---0-----0--0-----0--0-|
g--11--11-----11--11-----9---9-----9---9-----8--8-----8--8-|
d--12--12-----12--12-----10--10----10--10----9--9-----9--9-|
a--12--12-----12--12-----10--10----10--10----9--9-----9--9-|
e--10--10-----10--10-----8---8-----8---8-----7--7-----7--7-|


chorus "when I'm gone..."
e------------------------------|
b--8--8----------6--6--------6-|
g--9--9---8--8---7--7---6--6-7-|
d--9--9---9--9---7--7---7--7-7-|    play 3 times
a--7--7---6--6---5--5---4--4-5-|
e------------------------------|

After chorus "here' we are, side by side.."
e---------------------------------|
b-6-6-6-6-6-6-6-6-----------------|
g-7-7-7-7-7-7-7-7-6-6-6-6-6-6-6-6-|
d-7-7-7-7-7-7-7-7-7-7-7-7-7-7-7-7-|
a-5-5-5-5-5-5-5-5-4-4-4-4-4-4-4-4-|
e---------------------------------|

after that, play the chorus twice.
Tap to rate this tab
 
# A B C D E F G H I J K L M N O P Q R S T U V W X Y Z