Song name
# A B C D E F G H I J K L M N O P Q R S T U V W X Y Z

Misc Unsigned Bands - Bluefire - This Is Our Ride tab

This is our ride by Bluefire


Tabbed by Joyce Galang( 6 wisdom)...


"Not a 100% accurate tab but it sounds like the song"


INTRO1:

Guitar 1(Rthm):
|--------------|------------|-----------|--2-2-2-2-2-|
|--2-2-2-2-2---|------------|-----------|--3-3-3-3-3-|
|--2-2-2-2-2---|--1-1-1-1-1-|-6-6-6-6-6-|--2-2-2-2-2-|
|--2-2-2-2-2---|--2-2-2-2-2-|-6-6-6-6-6-|------------|
|--------------|--2-2-2-2-2-|-4-4-4-4-4-|------------|
|--------------|------------|-----------|------------|

INTRO2:

Guitar 1(Rthm):
|--------------|-------------|-------------|-----------|
|--------------|-------------|-------------|-----------|
|--------------|-9-9-9-9-9---|-6-6-6-6-6---|-7-7-7-7-7-|X2
|--7-7-7-7-7---|-9-9-9-9-9---|-6-6-6-6-6---|-7-7-7-7-7-|
|--7-7-7-7-7---|-7-7-7-7-7---|-4-4-4-4-4---|-5-5-5-5-5-|
|--5-5-5-5-5---|-------------|-------------|-----------|
Guitar 2 (Ld):
|--------------------------------------|9------9------9------9------9----9-|
|--10-9---10-9---10-9---10-9---10-9-10-|--10-----10-----10-----10-----10---|
|-------9------9------9------9---------|-----9------9------9------9--------|
|--------------------------------------|-----------------------------------|
|--------------------------------------|-----------------------------------|
|--------------------------------------|-----------------------------------|

|--12------12------12------12------12----12-|------12-------------------|
|-----10------10------10------10------10----|-9-10----(x4)-9-10-12-9-10-|
|--------9-------9-------9-------9----------|---------------------------|
|-------------------------------------------|---------------------------|
|-------------------------------------------|---------------------------|
|-------------------------------------------|---------------------------|

VERSE 1:
Guitar 1&2
|--------------|------------|-----------|--2-2-2-2-2-|
|--2-2-2-2-2---|------------|-----------|--3-3-3-3-3-|
|--2-2-2-2-2---|--1-1-1-1-1-|-6-6-6-6-6-|--2-2-2-2-2-|
|--2-2-2-2-2---|--2-2-2-2-2-|-6-6-6-6-6-|------------|
|--------------|--2-2-2-2-2-|-4-4-4-4-4-|------------|
|--------------|------------|-----------|------------|

Guitar 1:
|--------------|------------|-----------|--2-2-2-2-2-|
|--2-2-2-2-2---|------------|-----------|--3-3-3-3-3-|
|--2-2-2-2-2---|--1-1-1-1-1-|-6-6-6-6-6-|--2-2-2-2-2-|
|--2-2-2-2-2---|--2-2-2-2-2-|-6-6-6-6-6-|------------|
|--------------|--2-2-2-2-2-|-4-4-4-4-4-|------------|
|--------------|------------|-----------|------------|

Guitar 2:
|-------------------|------------------|------------------|----12----12-|
|--10-10-10-9-9-9---|-10-10-10-9-9-9---|-10-10-10-9-9-9---|-10----10----|
|-----------------9-|----------------9-|----------------9-|-------------|
|-------------------|------------------|------------------|-------------|
|-------------------|------------------|------------------|-------------|
|-------------------|------------------|------------------|-------------|


CHORUS:

Guitar 1&2:

|---------P-|-------|
|---------A-|-------|
|--7-7-7--U-|--7777-|
|--7-7-7--S-|--7777-|
|--5-5-5--E-|--5555-|

|------------|-------------|
|------------|-------------|
|--6-6-6-6-6-|-7-7-7-7-7---|X2
|--6-6-6-6-6-|-7-7-7-7-7---|
|--4-4-4-4-4-|-5-5-5-5-5---|
|------------|-------------|

INTRO:

Guitar 1(Rthm):
|--------------|-------------|-------------|-----------|
|--------------|-------------|-------------|-----------|
|--------------|-9-9-9-9-9---|-6-6-6-6-6---|-7-7-7-7-7-|X2
|--7-7-7-7-7---|-9-9-9-9-9---|-6-6-6-6-6---|-7-7-7-7-7-|
|--7-7-7-7-7---|-7-7-7-7-7---|-4-4-4-4-4---|-5-5-5-5-5-|
|--5-5-5-5-5---|-------------|-------------|-----------|
Guitar 2 (Ld):
|--------------------------------------|9------9------9------9------9----9-|
|--10-9---10-9---10-9---10-9---10-9-10-|--10-----10-----10-----10-----10---|
|-------9------9------9------9---------|-----9------9------9------9--------|
|--------------------------------------|-----------------------------------|
|--------------------------------------|-----------------------------------|
|--------------------------------------|-----------------------------------|

|--12------12------12------12------12----12-|------12-------------------|
|-----10------10------10------10------10----|-9-10----(x4)-9-10-12-9-10-|
|--------9-------9-------9-------9----------|---------------------------|
|-------------------------------------------|---------------------------|
|-------------------------------------------|---------------------------|
|-------------------------------------------|---------------------------|


VERSE 2:
Guitar 1&2
|--------------|------------|-----------|--2-2-2-2-2-|
|--2-2-2-2-2---|------------|-----------|--3-3-3-3-3-|
|--2-2-2-2-2---|--1-1-1-1-1-|-6-6-6-6-6-|--2-2-2-2-2-|X2
|--2-2-2-2-2---|--2-2-2-2-2-|-6-6-6-6-6-|------------|
|--------------|--2-2-2-2-2-|-4-4-4-4-4-|------------|
|--------------|------------|-----------|------------|

Guitar 1:
|--------------|-------------|-------------|-------------|
|--------------|-------------|-------------|-------------|
|--------------|-6-6-6-6-6---|-7-7-7-7-7---|-9-9-9-9-9---|
|--7-7-7-7-7---|-6-6-6-6-6---|-7-7-7-7-7---|-9-9-9-9-9---|
|--7-7-7-7-7---|-4-4-4-4-4---|-5-5-5-5-5---|-7-7-7-7-7---|
|--5-5-5-5-5---|-------------|-------------|-------------|

Guitar 2:
|-----------------12-12-12-|-------------------------------|
|--10-10-10-9-9-9----------|-10-10-10-9-9-9-------12-12-12-|
|--------------------------|----------------9-9-9----------|
|--------------------------|-------------------------------|
|--------------------------|-------------------------------|
|--------------------------|-------------------------------|

|----------------------9-9-9-|-----------9-9-9-12-12-12-|
|-10-10-10-9-9-9-------------|--12-12-12----------------|
|----------------9-9-9-------|--------------------------|
|----------------------------|--------------------------|
|----------------------------|--------------------------|
|----------------------------|--------------------------|


CHORUS:

Guitar 1&2:

|---------P-|-------|
|---------A-|-------|
|--7-7-7--U-|--7777-|
|--7-7-7--S-|--7777-|
|--5-5-5--E-|--5555-|

|------------|-------------|
|------------|-------------|
|--6-6-6-6-6-|-7-7-7-7-7---|X2
|--6-6-6-6-6-|-7-7-7-7-7---|
|--4-4-4-4-4-|-5-5-5-5-5---|
|------------|-------------|


ADLIB:
|-----12-9-------9-------------------9---------------------9-9-9---------|
|--10------10-12---10-12-12-12-10-12---10~--10-10-10-9-9-9-------10-10-9-|
|------------------------------------------------------------------------|
|------------------------------------------------------------------------|
|------------------------------------------------------------------------|
|------------------------------------------------------------------------|

|-----12-9-|9~--10-10-10-9-9-9----10-10-10-9-9-9-------------|
|--10------|--------------------10----------------10/12--10--|
|----------|-------------------------------------------------|
|----------|-------------------------------------------------|
|----------|-------------------------------------------------|
|----------|-------------------------------------------------|

|--10-10-10-9-9-9-10-10-10-9-9-10-12~--|
|--------------------------------------|
|--------------------------------------|
|--------------------------------------|
|--------------------------------------|
|--------------------------------------|
BRIDGE:

|--------------|-----------|-------------------|
|--------------|-----------|-------------------|
|--------------|-6-6-6-6-6-|-7-7-7-7-7-7-7-7-7-|
|--7-7-7-7-7---|-6-6-6-6-6-|-7-7-7-7-7-7-7-7-7-|
|--7-7-7-7-7---|-4-4-4-4-4-|-5-5-5-5-5-5-5-5-5-|
|--5-5-5-5-5---|-----------|-------------------|

|--------------|-----------|-----------|-------------|
|--------------|-----------|-----------|-------------|
|--------------|-6-6-6-6-6-|-7-7-7-7-7-|-9-9-9-9-9---|
|--7-7-7-7-7---|-6-6-6-6-6-|-7-7-7-7-7-|-9-9-9-9-9---|
|--7-7-7-7-7---|-4-4-4-4-4-|-5-5-5-5-5-|-7-7-7-7-7---|
|--5-5-5-5-5---|-----------|-----------|-------------|


CHORUS:

Guitar 1&2:

|---------P-|
|---------A-|
|--7-7-7--U-|
|--7-7-7--S-|
|--5-5-5--E-|

....................

|----------------|
|----------------|
|--7-7-7 7-7-7-7-|
|--7-7-7-7-7-7-7-|
|--5-5-5-5-5-5-5-|

|------------|-------------|
|------------|-------------|
|--6-6-6-6-6-|-7-7-7-7-7---|
|--6-6-6-6-6-|-7-7-7-7-7---|X2
|--4-4-4-4-4-|-5-5-5-5-5---|
|------------|-------------|

OUTRO1:

Guitar 1(Rthm):
|--------------|-------------|-------------|-----------|
|--------------|-------------|-------------|-----------|
|--------------|-9-9-9-9-9---|-6-6-6-6-6---|-7-7-7-7-7-|
|--7-7-7-7-7---|-9-9-9-9-9---|-6-6-6-6-6---|-7-7-7-7-7-|
|--7-7-7-7-7---|-7-7-7-7-7---|-4-4-4-4-4---|-5-5-5-5-5-|
|--5-5-5-5-5---|-------------|-------------|-----------|
Guitar 2 (Ld):
|--------------------------------------|9------9------9------9------9----9-|
|--10-9---10-9---10-9---10-9---10-9-10-|--10-----10-----10-----10-----10---|
|-------9------9------9------9---------|-----9------9------9------9--------|
|--------------------------------------|-----------------------------------|
|--------------------------------------|-----------------------------------|
|--------------------------------------|-----------------------------------|

|--12------12------12------12------12----12-|------12-------------------|
|-----10------10------10------10------10----|-9-10----(x4)-9-10-12-9-10-|
|--------9-------9-------9-------9----------|---------------------------|
|-------------------------------------------|---------------------------|
|-------------------------------------------|---------------------------|
|-------------------------------------------|---------------------------|

OUTRO2:

Guitar 1:
|--------------|-------------|-------------|-----------|
|--------------|-------------|-------------|-----------|
|--------------|-9-9-9-9-9---|-6-6-6-6-6---|-7-7-7-7-7-|
|--7-7-7-7-7---|-9-9-9-9-9---|-6-6-6-6-6---|-7-7-7-7-7-|
|--7-7-7-7-7---|-7-7-7-7-7---|-4-4-4-4-4---|-5-5-5-5-5-|
|--5-5-5-5-5---|-------------|-------------|-----------|

Guitar 2:

|---------------------9------12-10-9-10-9-12---------|
|--10-9---10-9---10-9---10-------------------12-10-9-|
|-------9------9-----------9-------------------------|
|----------------------------------------------------|
|----------------------------------------------------|
|----------------------------------------------------|

|12-10-9-10-12-10-9-10-9----|
|------------------------10-|
|---------------------------|
|---------------------------|
|---------------------------|
|---------------------------|

OUTRO 3:

Guitar 1:
|--------------|-------------|-------------|-----------|
|--------------|-------------|-------------|-----------|
|--------------|-9-9-9-9-9---|-6-6-6-6-6---|-7-7-7-7-7-|
|--7-7-7-7-7---|-9-9-9-9-9---|-6-6-6-6-6---|-7-7-7-7-7-|
|--7-7-7-7-7---|-7-7-7-7-7---|-4-4-4-4-4---|-5-5-5-5-5-|
|--5-5-5-5-5---|-------------|-------------|-----------|

|---------------------9------9------9----|
|--10-9---10-9---10-9---10-----10-----10-|
|-------9------9-----------9------9------|
|----------------------------------------|
|----------------------------------------|
|----------------------------------------|

|12-10-9-10-12-10-9-10-12-10-9-10-12------|
|------------------------------------10~--|
|-----------------------------------------|
|-----------------------------------------|
|-----------------------------------------|
|-----------------------------------------|


^_^ Goodluck 4 all graduates!!!
Tap to rate this tab
# A B C D E F G H I J K L M N O P Q R S T U V W X Y Z