Song name
# A B C D E F G H I J K L M N O P Q R S T U V W X Y Z

Misc Unsigned Bands - Wildstreak - Killer Desiah tab

Killer Desiah
By: Wildstreak

INTRO

e---------------------------------|
b---------------------------------|
g-7p0-5p0-4p0-5p0-4p0-2p0-4p0-----|12x
d-----------------------------3p0-|
a---------------------------------|
E---------------------------------|

VERSE

e---------------------------------------------|
b----------3--2----------3~-2~----------3~-2~-|
g-4--2-----2--2----------4~-2~----------4~-2~-|3x
d-4--2-----4--2-------2--------------2--------|
a-2--0--------0-------2--------------2--------|
E------3b5------2h3h4-0--------2h3h4-0--------|

PRE-CHORUS

e-------------------------------|
b-------------------------------|
g-4-4-4-4-4-4-4-4-4-4-----------|
d-4-4-4-4-4-4-4-4-4-4-2-2-----2-|
a-2-2-2-2-2-2-2-2-2-2-2-2-----2-|
E---------------------0-0-3b5-0-|

CHORUS

e--------------------------------------------------|
b-3--2-----3---3-----------------------------------|
g-2--2--2--0---2-7p0-5p0-4p0-5p0-4p0-2p0-4p0-------|4x
d-4--2--0--0---0-----------------------------3p0---|
a----0--x--x---------------------------------------|
E-------2--3---------------------------------------|
                <---------------2x-----------------|

VERSE II

e---------------------------------------------|
b----------3--2----------3~-2~----------3~-2~-|
g-4--2-----2--2----------4~-2~----------4~-2~-|3x
d-4--2-----4--2-------2--------------2--------|
a-2--0--------0-------2--------------2--------|
E------3b5------2h3h4-0--------2h3h4-0--------|

PRE-CHORUS

e-------------------------------|
b-------------------------------|
g-4-4-4-4-4-4-4-4-4-4-----------|
d-4-4-4-4-4-4-4-4-4-4-2-2-----2-|
a-2-2-2-2-2-2-2-2-2-2-2-2-----2-|
E---------------------0-0-3b5-0-|

CHORUS

e--------------------------------------------------|
b-3--2-----3---3-----------------------------------|
g-2--2--2--0---2-7p0-5p0-4p0-5p0-4p0-2p0-4p0-------|2x
d-4--2--0--0---0-----------------------------3p0---|
a----0--x--x---------------------------------------|
E-------2--3---------------------------------------|
                <---------------2x-----------------|

BRIDGE

e--------------------|
b-3--2-----3---3-----|
g-2--2--2--0---2-----|3x
d-4--2--0--0---0-----|
a----0--x--x---------|
E-------2--3---------|

|------------------------------------------------|
|-3--2-------------------------------------------|
|-2--2--2----------------------------------------|
|-4--2--0--------------5--------------x<~~~~~~~~-|
|----0--x---7~~-5~~~-7---5~~-5-7-5~~~-x<~~~~~~~~-|
|-------2----------------------------------------|

SOLO

e-------------------------------------------------|------------------|
b-----6-------------------------------------------|-8b10-------------|
g-7b9---7-5--------------------------5b7----------|------9-7---------|
d-----------7-5-7~~~----------7b9~~~-----7-7-5-7~-|----------7-9-7~~-|
a--------------------7b9~~~-5---------------------|------------------|
E-------------------------------------------------|------------------|

------------------------------------|-----------------------------------|
-7b8--------------------------------|-15b17-15b17~~~--------------------|
-7b8---7-9~~~~/12-9----9-11---------|----------------14-16-14-----------|
-----9--------------11------11~~~~\-|-------------------------16-14~~~\-|
------------------------------------|-----------------------------------|
------------------------------------|-----------------------------------|

------------------------------|-8-10-8-----------------------------------|
-----------------5------------|--------10-7------------------------------|
-4b6-4-2-4-4b6~~---pb6-4-2----|-------------7-9~-------------------------|
---------------------------4~-|---------------------------5---7b9~~~-\-5-|
------------------------------|------------------5-7b9~-7---5------------|
------------------------------|------------------------------------------|

------------------------------------------------------------------------|
---------/-13-----------------------------------17-20b22-pbr21-20-17-20-|
--------------14--12-14~~----12----12-12-/14~~~-------------------------|
-5--5~~~------------------14----14--------------------------------------|
------------------------------------------------------------------------|
------------------------------------------------------------------------|

-----------------------|
-20b21~~~~~~~~---------|
-----------------------|
---------------x<~~~~~-|
---------------x<~~~~~-|
-----------------------|

CHORUS

e-------------------------------------------------|
b-3--2-----3---3----------------------------------|
g-2--2--2--0---2-7p0-5p0---5~~~-4p0-2p0-4p0-------|
d-4--2--0--0---0---------7------------------3p0---|
a----0--x--x--------------------------------------|
E-------2--3--------------------------------------|
                <---------------2x----------------|

|-----------------------------------------------------------------------|
|-3--2-----3---3-15b17~~~-15-14-------------13b15-------------13b15~~~\-|
|-2--2--2--0---2----------------16-14-16~~~-------14-12-12-14-----------|
|-4--2--0--0---0--------------------------------------------------------|
|----0--x--x------------------------------------------------------------|
|-------2--3------------------------------------------------------------|

OUTRO

e---------------------------------|
b---------------------------------|
g-7p0-5p0-4p0-5p0-4p0-2p0-4p0-----|2x
d-----------------------------3p0-|
a---------------------------------|
E---------------------------------|

------------------------------------------------------------------------|
------------------------------------------------------------------------|
-7p=0--5p=0--4p==0--5p==0--4p==0--2p===0---4p===0---------------------2-|
--------------------------------------------------3==========~~~~~~~~-2-|
----------------------------------------------------------------------0-|
------------------------------------------------------------------------|
Tap to rate this tab
 
# A B C D E F G H I J K L M N O P Q R S T U V W X Y Z