Song name
# A B C D E F G H I J K L M N O P Q R S T U V W X Y Z

Misc Unsigned Bands - The Ampifiers - Reaper tab

The Ampifiers - Reaper

E|---7/9----7/9----7/9----7/9--9-7-5b----r5b--------5--5-----------3-5--5b-|
B|-------------------------------------------5h7p5-------5h7p5---5---------|
G|-------------------------------------------------------------------------|
D|-------------------------------------------------------------------------|
A|-------------------------------------------------------------------------|
E|-------------------------------------------------------------------------|

 ----3-5--5b-------3-5--5/7--5/7--5/7----7-5-3p0-7-5-3p0-7-5-3p0h3p0h3p0--|
 --5-------------5--------------------------------------------------------|
 -------------------------------------------------------------------------|
 -------------------------------------------------------------------------|
 -------------------------------------------------------------------------|
 -------------------------------------------------------------------------|
Tap to rate this tab
 
# A B C D E F G H I J K L M N O P Q R S T U V W X Y Z