Song name
# A B C D E F G H I J K L M N O P Q R S T U V W X Y Z

Misc Unsigned Bands - The Rev Peytons Big Damn Band - Sugar Man tab

I think this lick goes through the whole song. It's hard to understand the lyrics
with that "har hoo har ee har har" vocal style. But my six year old liked this song.
J@PeaceLoveandGuitars.com
                                                                          
E||--3-------------------|----------3-----0-------|--1-------------------|
B||----------------------|------------------------|----------------------|
G||----------------------|------------------------|----------------------|
D||-------2---------2----|-------2-----------2----|-------3---------3----|
A||--3---------3---------|--3----------3----------|----------------------|
E||----------------------|------------------------|--1---------1---------|


                                                                           
----------3-----1-------|--0-------------------|-----------3p----0-----1/-|
------------------------|----------------------|-----1--------------------|
------------------------|----------------------|--------------------------|
-------3-----------3----|-------2---------2----|--------2-----------2-----|
------------------------|--3---------3---------|--3-----------3-----------|
--1----------1----------|----------------------|--------------------------|


                                                                          
--3---------3/-5-------|-----1------------------|---------------------0--|
-----------------------|---------------------1--|---------------1--------|
-----------------------|------------------------|------------------------|
-------0----------0----|--3-----3----2----0-----|-------2----------2-----|
-----------------------|------------------------|--3---------3-----------|
--3---------3----------|------------------------|------------------------|


                                                                           
-----0-----------0--------|----------------------|---------------0--------|
-----------1-----------1--|----------------------|---------------------1--|
--------------------------|----------------------|------------------------|
--------2-----------2-----|-------2---------2----|-------2----------2-----|
--3-----------3-----------|--3---------3---------|--3---------3-----------|
--------------------------|----------------------|------------------------|


        
------||
------||
------||
------||
------||
------||
Tap to rate this tab
 
# A B C D E F G H I J K L M N O P Q R S T U V W X Y Z