Guitaretab - guitar tabs
Song name
# A B C D E F G H I J K L M N O P Q R S T U V W X Y Z

Misc Unsigned Bands - Demi Lovato - Open tab

Verse 1
E|------------------|
B|------------------|
G|------------------|
D|-5-5-2-2-9-9-9-9-9|
A|-5-5-2-2-9-9-9-9-9|x3
E|-3-3-0-0-7-7-7-7-7|

E|------------------|
B|------------------|
G|------------------|
D|-5-5-7-7-9-9-9-9-9|
A|-5-5-7-7-9-9-9-9-9|
E|-3-3-5-5-7-7-7-7-7|

not 100% sure about this part
[ Tab from: http://www.guitaretab.com/m/misc-unsigned-bands/105729.html ]
Pre-Chrous
E|--------------------------------|
B|--------------------------------|
G|--------------------------------|
D|-4-4-4-4-5-5-5-5-7-7-7-7-9-9-9-9|
A|-4-4-4-4-5-5-5-5-7-7-7-7-9-9-9-9|
E|-2-2-2-2-3-3-3-3-5-5-5-5-7-7-7-7|

E|--------------------------------|
B|--------------------------------|
G|--------------------------------|
D|-9-9-9-9-5-5-5-5-7-7-7-7-7-7-7-7|
A|-7-7-7-7-5-5-5-5-7-7-7-7-7-7-7-7|
E|-7-7-7-7-3-3-3-3-5-5-5-5-5-5-5-5|


that's all i've gotten
i'm still working on it.
Related for Demi Lovato - Open tab
Advertisement will be closed in 10 seconds