Song name
# A B C D E F G H I J K L M N O P Q R S T U V W X Y Z

Misc Unsigned Bands - Brett Andrews - First Fleet tab

[REPEAT x2]
E------0----------|------0----------|-------0---------|-------3---------|
B-----1--1--------|-----1--1--------|---------0-------|--------0--------|
G----0----0-------|----2----2-------|-----0----0------|-----0---0-------|
D---2-------------|---2-------------|----2------------|----0------------|
A--3--------------|--0--------------|---2-------------|---2-------------|
E-----------------|-----------------|--0--------------|--3--------------|
[/REPEAT x2]


E--0----0---------|--0----0---------|--0----0---------|--3----2---------|
B--1---1-1--------|--1---1-1--------|--0---0-0--------|--0---0-0--------|
G--0--0---0-------|--2--2---2-------|--0--0---0-------|--0--0---0-------|
D--2-2------------|--2-2------------|--2-2------------|--0-0------------|
A--3--------------|--0--------------|--2--------------|--2--------------|
E-----------------|-----------------|--0--------------|--3--------------|

-----------------------
STRUMMING PATTERN FOR EACH CHORD: 
D D D U D U D D U D U
-----------------------
Chords: (C, Am , Em, G)
E--0--------------|--0--------------|--0--------------|--3--------------|
B--1--------------|--1--------------|--0--------------|--0--------------|
G--0--------------|--2--------------|--0--------------|--0--------------|
D--2--------------|--2--------------|--2--------------|--0--------------|
A--3--------------|--0--------------|--2--------------|--2--------------|
E-----------------|-----------------|--0--------------|--3--------------|


More to be added soon! Tell me how y'all like it so far! Thanks - Brett.
Tap to rate this tab
# A B C D E F G H I J K L M N O P Q R S T U V W X Y Z