Guitaretab - guitar tabs
Song name
# A B C D E F G H I J K L M N O P Q R S T U V W X Y Z

Misc Unsigned Bands - Shit Happens When You Party Naked - I Dont Know tab

|--------------|   |--------------|
|--------------|   |--------------| x2
|---------5----|   |--------------|
|---7-5-7---7--|   |---7-5-7--5-3-|
|-0------------|   |-0------------|    

[ Tab from: http://www.guitaretab.com/m/misc-unsigned-bands/105775.html ]
|--------------|   |---------------------------------------------|
|--------------|   |-------------------------------------------2-| 
|---------5----|   |-------------------------------------------0-|
|---7-5-7---7--|   |---7-5-7--5-3-12-12-12-12-12-12-12-12-12--12-|
|-0------------|   |-0-------------------------------------------|   
Related for Shit Happens When You Party Naked - I Dont Know tab