Song name
# A B C D E F G H I J K L M N O P Q R S T U V W X Y Z

Misc Unsigned Bands - Trash Talk - Walking Disease tab

Band: Trash Talk
Song: Walking Disease
Album: Walking Disease

Tunning: Drop D (D,A,D,G,B,E)




|-------|
|-------|
|-------|
|--6----|
|--6----|
|--6----|


|------------------------------------|--------------------------------|
|------------------------------------|--------------------------------|
|------------------------------------|--------------------------------|
|--6-6-6-6-6--9/8-8--3-3-3-3-3--3-8--|--6-6-6-6-6--9/8-8--3-8---------|  x2
|--6-6-6-6-6--9/8-8--3-3-3-3-3--3-8--|--6-6-6-6-6--9/8-8--3-8---------|
|--6-6-6-6-6--9/8-8--3-3-3-3-3--3-8--|--6-6-6-6-6--9/8-8--3-8---------|
pm   . . . .           . . . .            . . . . 


|---------------------------------------------------------------------|
|---------------------------------------------------------------------|
|---------------------------------------------------------------------|
|--3-3-4-4-9-9-11-6---------------------------------------------------|
|--3-3-4-4-9-9-11-6---------------------------------------------------|
|--3-3-4-4-9-9-11-6---------------------------------------------------|

|----------------------------------|----------------------------------|
|----------------------------------|----------------------------------|
|----------------------------------|----------------------------------|
|--3-3-4-4-9-9-11-6-6-6-6-6-6-6-6--|--3-3-4-4-9-9-11-6-6-6-6-4-4-4-4--| x2
|--3-3-4-4-9-9-11-6-6-6-6-6-6-6-6--|--3-3-4-4-9-9-11-6-6-6-6-4-4-4-4--|
|--3-3-4-4-9-9-11-6-6-6-6-6-6-6-6--|--3-3-4-4-9-9-11-6-6-6-6-4-4-4-4--|
pm . . . . . . . . . . . . . . . .    . . . . . . . . . . . . . . . . 

|----------------------------------|----------------------------------|
|----------------------------------|----------------------------------|
|----------------------------------|----------------------------------|
|--3-3-4-4-9-9-11-6-6-6-6-6-6-6-6--|--3-3-4-4-9-9-11-6-6-6-6-4-4-4-4--| x2
|--3-3-4-4-9-9-11-6-6-6-6-6-6-6-6--|--3-3-4-4-9-9-11-6-6-6-6-4-4-4-4--|
|--3-3-4-4-9-9-11-6-6-6-6-6-6-6-6--|--3-3-4-4-9-9-11-6-6-6-6-4-4-4-4--|



Basically that's it, if it's wrong don't whine, it's close.

	



tabbed by: SadistNation
Tap to rate this tab
# A B C D E F G H I J K L M N O P Q R S T U V W X Y Z